Details In The Fabric Tab (ver 2) - Jason Mraz

"Details In The Fabric"
"Jason Mraz"
"39380751";

     
"Details In The Fabric"
"Details In The Fabric"
 Jason Mraz - Details In The Fabric (ver 2) Guitar Tab
    Details In The Fabric Tab
    
       
    hmm it said I was unregistered on the other one I posted and I
still have to edit it,
is my first tab.

This is a really fun tab, I use my thumb for A and D, first finger for
G, second for B,
for the little e.

Capo on 6

Intro/Verse 1
---------0-------0---------0-------0---------1-------1---------1-------1--|
-----1-----1---1-------1-----1---1-------2-----2---2-------2-----2---2----|
-----0-------0---------0-------0---------1-------1---------1-------3------|
x2
---2-----------2-----2-----------2-----3-----------3-----3-----------3----|
-0-----0-----------0-----0-----------4-----4-----------4-----4------------|
--------------------------------------------------------------------------|

Interlude
---------0-------0---------0------0---------1-------1-------------------|
-----1-----1---1-------1-----1---1------2-----2---2---------------------|
-----0-------0---------0-------0--------1-------1-----------------------|
---2-----------2-----2-----------2----3-----------3---------------------|
-0-----0-----------0-----0----------4-----4-----------4-----------------|
------------------------------------------------------------------------|

Verse 1 x 5

Interlude

Chorus
---------1-------1---------0-------0---------3-------3---------3-------3--|
-----2-----2---2-------1-----1---1-------1-----1---1-------1-----1---1----|
-----1-------1---------0-------0---------0-------0---------0-------0------|
x2
---3-----------3-----2-----------2-----2-----------2-----2-----------2----|
-4-----4-----------3-----3-----------0-----0-----------0-----0------------|
--------------------------------------------------------------------------|

Bridge
---------1-------1---------1-------1------------------------------------|
-----1-----1---1-------1-----1---1--------------------------------------|
-----2-------2---------2-------2----------------------------------------|
---3-----------3-----3-----------3--------------------------------------|
-3-----3-----------3-----3-----------0----------------------------------|
------------------------------------------------------------------------|

Verse 1 x3

Interlude

Chorus x2

Bridge 2
---------1-------1---------1-------1---------3-------3---------3-------3-|
-----1-----1---1-------1-----1---1-------1-----1---1-------1-----1---1---|
-----2-------2---------2-------2---------0-------0---------0-------0-----|
---3-----------3-----3-----------3-----2-----------2-----2-----------2---|
-3-----3-----------3-----3-----------0-----0-----------0-----0-----------|
-------------------------------------------------------------------------|

---------1-------1---------1-------1-------------------------------------|
-----1-----1---1-------1-----1---1---------------------------------------|
-----2-------2---------2-------2-----------------------------------------|
---3-----------3-----3-----------3---------------------------------------|
-3-----3-----------3-----3----------0------------------------------------|
-------------------------------------------------------------------------|

Here's my version of about the first half, I'll do the rest soon.
    
        

      
"Details In The Fabric"
"Details In The Fabric"
"Jason Mraz" "Details In The Fabric" "39380752"
      
     
     Jason Mraz - Details In The Fabric TabDetails In The Fabric     
People who played Jason Mraz - Details In The Fabric Tab also played
these songs by 
      Jason Mraz:
      Im Yours Acoustic Chords, Lucky Chords, Im Yours Chords, Geek In
The Pink Chords, Winter Wonderland Chords, Make It Mine Chords,
Details In The Fabric Chords, Beautiful Mess Chords  
  
  
  
   
   
     
    About the artist behind Details In The Fabric Tab:   
    
     Jason Thomas Mraz (pronounced /'dʒeɪsən ˈɱɹæz/; born June
23, 1977) is an American singer-songwriter, born and raised in
Mechanicsville, Virginia, a suburb of Richmond.[1]Mraz is an eclectic
artist with multiple and varied stylistic influences, including pop,
rock, folk, jazz, country, and hip hop. He has played with various
artists, including The Rolling Stones, Bob Dylan, Dave Matthews Band,
James Blunt, Gavin DeGraw, Paula Cole, John Popper, Alanis Morissette,
The Ohio Players, Rachael Yamagata, Jewel and Colbie Caillat.[citation
needed]Indexed at Wikipedia.      
Details In The Fabric Tab!
     
Details In The Fabric Tab, 


   Current rating: 0
   
   Rate: 
   1 
   2 
   3 
   4 
   5
  
  
  
    
    
  
  
 
 
     
      
     
     
 
 
  
  
   The chord pattern is shown here.   
  
  
  
 
 
 
 

 
  Guitar Chords - 
  Popular Chords - 
  in partnership with ToneFuse Music - 
  info   yourchords.com
  

 


 c4:
"http://www.yourchords.com/166750/Jason-Mraz/Details-In-The-Fabric-ver-2-Tab/"
The Best Equipment Deals | Best Music Deals
Midi Mime Types SiteMap Contact Subscribe © 2014 JimmyLandStudios