Embryo Of Lies Tab - A Canorous Quintet

"Embryo Of Lies"
"A Canorous Quintet"
"39380751";

     
"Embryo Of Lies"
"Embryo Of Lies"
 A Canorous Quintet - Embryo Of Lies Guitar Tab
    Embryo Of Lies Tab
    
       
    Author/Artist: A CANOROUS QUINTET
Title: Embryo Of Lies
Album: THE ONLY PURE HATE
Transcribed by: Hakuja
URL: http://funeralelegy.net/fw/
Email: hakuja@jiten.ne.jp

Ver. 1.00 (02/04/27)

Tuning : 1 and Half down

*** time - 0:00
Part_A
#|--------------------------------------|#
#|--------------------------------------|#
#|---_____3_____-------_____3_____------|#
#|--|-----|-----|-----|-----|-----|-----|#
#|--5-----5-----5-----4-----4-----4-----|#
#|--3-----3-----3-----2-----2-----2-----|#
    1        2        3        4     (End of Part_A)
*** time - 0:02
Part_B
  Repeat it 6 times.
#|----------------------|----------------------|----------------------|-----------------------||#
#|----------------------|----------------------|----------------------|-----------------------||#
#|----------------------|----------------------|----------------------|----------------------o||#
#|----------------------|----------------------|----------------------|----------------------o||#
#|--2---------10p9------|--7h9--6--------------|-------3~---6~---5~---|--5~---6~---3~---------||#
#|--0----0-0-------0-0--|------------0-0--0-0--|--3~------------------|-----------------------||#
    1    2    3    4       1    2    3    4    |  1    2    3    4   
|  1    2    3    4     ||
                                               |                     
|                       ||
                                               |  from x2            
|                       ||
                                              
|----------------------|-----------------------||#
                                              
|----------------------|-----------------------||#
                                              
|----------------------|----------------------o||#
                                              
|------------5~---3~---|--5~---6~---3~--------o||#
                                              
|-------6~-------------|-----------------------||#
                                              
|--3~------------------|-----------------------||#
                                                  1    2    3    4    
  1    2    3    4  (End of Part_B)
*** time - 0:25
Part_C
#|----------------------|----------------------|----------------------|----------------------|
#|----------------------|----------------------|----------------------|----------------------|
#|----------------------|----------------------|----------------------|----------------------|
#|----------------------|----------------------|----------------------|----------------------|
#|--10~-----------------|--9~--------7~--------|--9~------------------|--6~------------------|
#|----------------------|----------------------|----------------------|----------------------|
 |  1    2    3    4    |  1    2    3    4    |  1    2    3    4   
|  1    2    3    4    |
 |                      |                      |                     
|                      |
#|----------------------|----------------------|----------------------|----------------------|
#|----------------------|----------------------|----------------------|----------------------|
#|----------------------|----------------------|----------------------|----------------------|
#|----------------------|----------------------|----------------------|----------------------|
#|----------------------|----------------------|--2~------------------|--2~------------------|
#|--0~------------------|--0~------------------|----------------------|----------------------|
    1    2    3    4       1    2    3    4       1    2    3    4    
  1    2    3    4     
|----------------------|----------------------|----------------------|----------------------|
|----------------------|----------------------|----------------------|----------------------|
|----------------------|----------------------|----------------------|----------------------|
|--7~------------------|----------------------|----------------------|----------------------|
|------------9~--------|--6~------------------|----------------------|----------------------|
|----------------------|------------8~--------|--7~------------------|--7~------------------|
|  1    2    3    4    |  1    2    3    4    |  1    2    3    4    |
 1    2    3    4    |
|                      |                      |                      |
                     |
|----------------------|----------------------|----------------------|----------------------|
|----------------------|----------------------|----------------------|----------------------|
|----------------------|----------------------|----------------------|----------------------|
|----------------------|----------------------|----------------------|----------------------|
|----------------------|----------------------|----------------------|----------------------|
|--5~------------------|--4~------------------|--3~------------------|--2~------------------|
   1    2    3    4       1    2    3    4       1    2    3    4     
 1    2    3    4     
|----------------------|----------------------|----------------------|----------------------|
|----------------------|----------------------|----------------------|----------------------|
|----------------------|----------------------|----------------------|----------------------|
|----------------------|----------------------|----------------------|----------------------|
|--10~-----------------|--9~--------7~--------|--7~------------------|----------------------|
|----------------------|----------------------|----------------------|--8~------------------|
|  1    2    3    4    |  1    2    3    4    |  1    2    3    4    |
 1    2    3    4    |
|                      |                      |                      |
                     |
|----------------------|----------------------|----------------------|----------------------|
|----------------------|----------------------|----------------------|----------------------|
|----------------------|----------------------|----------------------|----------------------|
|----------------------|----------------------|----------------------|----------------------|
|----------------------|----------------------|----------------------|----------------------|
|--0~------------------|--0~------------------|--5~------------------|--5~------------------|
   1    2    3    4       1    2    3    4       1    2    3    4     
 1    2    3    4     

|----------------------|----------------------|----------------------|----------------------|#
|----------------------|----------------------|----------------------|----------------------|#
|----------------------|--2~------------------|----------------------|----------------------|#
|------------2~--------|------------2~--------|--4~--------1~--------|----------------------|#
|----------------------|----------------------|----------------------|--2~--------xg--------|#
|--3~------------------|----------------------|----------------------|----------------------|#
|  1    2    3    4    |  1    2    3    4    |  1    2    3    4    |
 1    2    3    4    | 
|                      |                      |                      |
                     | 
|----------------------|----------------------|----------------------|----------------------|#
|----------------------|----------------------|----------------------|----------------------|#
|----------------------|----------------------|----------------------|----------------------|#
|----------------------|----------------------|----------------------|----------------------|#
|----------------------|----------------------|----------------------|------------xg--------|#
|--3~------------------|--3~------------------|--2~------------------|--2~------------------|#
   1    2    3    4       1    2    3    4       1    2    3    4     
 1    2    3    4  (End of Part_C)
*** time - 0:43
Part_D
  Repeat it 6 times.
#||---------------------------------------|---------------------------------------||#
#||---------------------------------------|---------------------__3__----__3__----||#
#||o------------------------------__3__---|--------------------|--|--|--|--|--|--o||#
#||o---__3__----__3__----__3__---|--|--|--|---__3__----__3__---|--2--|--|--|--|--o||#
#||---|--|--|--|--|--|--|--|--|--2--3--2--|--|--|--|--|--|--|--|-----|--2--|--|---||#
#||---0--00-0--00-0--0--00-0--0-----------|--3--33-3--3--3--3--3-----3-----3--2---||#
      1        2        3        4           1        2        3      
 4  (End of Part_D)

*** time - 1:05
Part_E
  Repeat it 2 times.
#||---------------------------------------|---------------------------------------||#
#||-------------------------------__3__---|---------------------__3__----__3__----||#
#||o---__3__----__3__----__3__---|--|--|--|---__3__----__3__---|--|--|--|--|--|--o||#
#||o--|--|--|--|--|--|--|--|--|--5--6--5--|--|--|--|--|--|--|--|--8--|--5--|--|--o||#
#||---3--3--3--3--3--3--3--3--3-----------|--6--6--6--6--6--6--6-----6-----6--5---||#
#||---------------------------------------|---------------------------------------||#
 ||   1        2        3        4        |  1        2        3      
 4         ||
 ||                                       |                           
           ||
 ||                                       |                           
           ||
#||---------------------------------------|---------------------------------------||#
#||---------------------------------------|---------------------------------------||#
#||o---__3__----__3__----__3__------------|---------------------__3__----__3__---o||#
#||o--|--|--|--|--|--|--|--|--|---__3__---|---__3__----__3__---|--|--|--|--|--|--o||#
#||---3--3--3--3--3--3--3--3--3--|--|--|--|--|--|--|--|--|--|--|--6--|--3--|--|---||#
#||------------------------------3--4--3--|--4--4--4--4--4--4--4-----4-----4--3---||#
      1        2        3        4           1        2        3      
 4    (End of Part_E)
*** time -1:12
Part_F
  Repeat 2 times.
#||-----------------------|----------------------|----------------------|-----------------------||#
#||-----------------------|----------------------|----------------------|-----------------------||#
#||o----------------------|-----------------5~---|----------------------|----------------------o||#
#||o------------1~--------|------------3~--------|------------1~---2~---|----------------------o||#
#||--------2~-------------|--4~---1~-------------|-------2~-------------|--4~--------4~---2~----||#
#||---4~-------------2~---|----------------------|--4~------------------|-------2~--------------||#
 ||   1    2    3    4    |  1    2    3    4    |  1    2    3    4  
 |  1    2    3    4     || 
 ||                       |                      |                    
 |                       || 
#||-----------------------|----------------------|----------------------|-----------------------||#
#||-----------------------|----------------------|----------------------|-----------------------||#
#||o----------------------|----------------------|----------------------|----------------------o||#
#||o----------------------|----------------------|----------------------|----------------------o||#
#||-----------------------|----------------------|----------------------|-----------------------||#
#||---4~-------------6~---|--0~--------3~--------|--4~-------------7~---|--6~--------2~---------||#
      1    2    3    4       1    2    3    4       1    2    3    4  
    1    2    3    4  (End of Part_F)
*** time - 1:26
Play Part_D
  Repeat it 4 times.
*** time - 1:41
Play Part_E
  Repeat it 2 times.
*** time - 1:48
Play Part_F
  Repeat it 2 times.
*** time - 2:02
Part_G
  Repeat it 4 times.
#||---------------------------------------|----------------------------------------||#
#||---------------------------------------|----------------------------------------||#
#||o------------__3__----__3__------------|------------__3__----__3__-------------o||#
#||o---__3__---|--|--|--|--|--|---__3__---|---__3__---|--|--|--|--|--|---__3__----o||#
#||---|--|--|--10p9--|--7-h9--6--|--|--|--|--|--|--|--6-p5--|--3-h5--2--|--|--|----||#
#||---0--0--0--------0-----------0--0--0--|--3--3--3--------3-----------3--3--3----||#
      1        2        3        4           1        2        3      
 4    (End of Part_G)
*** time - 2:16
Part_H
#|----------------------|----------------------|----------------------|----------------------|
#|----------------------|----------------------|----------------------|----------------------|
#|----------------------|----------------------|----------------------|----------------------|
#|----------------------|----------------------|----------------------|----------------------|
#|--1010-1010-1010-1010-|--9-9--9-9--7-7--7-7--|--9-9--9-9--9-9--9-9--|--6-6--6-6--6-6--6-6--|
#|----------------------|----------------------|----------------------|----------------------|
 |  1    2    3    4    |  1    2    3    4    |  1    2    3    4   
|  1    2    3    4    |
 |                      |                      |                     
|                      |
#|----------------------|----------------------|----------------------|----------------------|
#|----------------------|----------------------|----------------------|----------------------|
#|----------------------|----------------------|----------------------|----------------------|
#|----------------------|----------------------|----------------------|----------------------|
#|----------------------|----------------------|--2-2--2-2--2-2--2-2--|--2-2--2-2--2-2--2-2--|
#|--0-0--0-0--0-0--0-0--|--0-0--0-0--0-0--0-0--|----------------------|----------------------|
    1    2    3    4       1    2    3    4       1    2    3    4    
  1    2    3    4     
|----------------------|----------------------|----------------------|----------------------|
|----------------------|----------------------|----------------------|----------------------|
|----------------------|----------------------|----------------------|----------------------|
|--7-7--7-7------------|----------------------|----------------------|----------------------|
|------------9-9--9-9--|--6-6--6-6------------|----------------------|----------------------|
|----------------------|------------8-8--8-8--|--7-7--7-7--7-7--7-7--|--7-7--7-7--7-7--7-7--|
|  1    2    3    4    |  1    2    3    4    |  1    2    3    4    |
 1    2    3    4    |
|                      |                      |                      |
                     |
|----------------------|----------------------|----------------------|----------------------|
|----------------------|----------------------|----------------------|----------------------|
|----------------------|----------------------|----------------------|----------------------|
|----------------------|----------------------|----------------------|----------------------|
|----------------------|----------------------|----------------------|----------------------|
|--5-5--5-5--5-5--5-5--|--4-4--4-4--4-4--4-4--|--3-3--3-3--3-3--3-3--|--2-2--2-2--2-2--2-2--|
   1    2    3    4       1    2    3    4       1    2    3    4     
 1    2    3    4     
|----------------------|----------------------|----------------------|----------------------|
|----------------------|----------------------|----------------------|----------------------|
|----------------------|----------------------|----------------------|----------------------|
|----------------------|----------------------|----------------------|----------------------|
|--1010-1010-1010-1010-|--9-9--9-9--7-7--7-7--|--9-9--9-9--9-9--9-9--|--6-6--6-6--6-6--6-6--|
|----------------------|----------------------|----------------------|----------------------|
|  1    2    3    4    |  1    2    3    4    |  1    2    3    4    |
 1    2    3    4    |
|                      |                      |                      |
                     |
|----------------------|----------------------|----------------------|----------------------|
|----------------------|----------------------|----------------------|----------------------|
|----------------------|----------------------|----------------------|----------------------|
|----------------------|----------------------|----------------------|----------------------|
|----------------------|----------------------|----------------------|----------------------|
|--0-0--0-0--0-0--0-0--|--0-0--0-0--0-0--0-0--|--5-5--5-5--5-5--5-5--|--5-5--5-5--5-5--5-5--|
   1    2    3    4       1    2    3    4       1    2    3    4     
 1    2    3    4     

|----------------------|----------------------|----------------------|----------------------|#
|----------------------|----------------------|----------------------|----------------------|#
|----------------------|--2-2--2-2------------|----------------------|----------------------|#
|------------2-2--2-2--|------------2-2--2-2--|--4-4--4-4--1-1--1-1--|----------------------|#
|----------------------|----------------------|----------------------|--2-2--2-2--xg--------|#
|--3-3--3-3------------|----------------------|----------------------|----------------------|#
|  1    2    3    4    |  1    2    3    4    |  1    2    3    4    |
 1    2    3    4    | 
|                      |                      |                      |
                     | 
|----------------------|----------------------|----------------------|----------------------|#
|----------------------|----------------------|----------------------|----------------------|#
|----------------------|----------------------|----------------------|----------------------|#
|----------------------|----------------------|----------------------|----------------------|#
|----------------------|----------------------|----------------------|------------xg--------|#
|--3-3--3-3--3-3--3-3--|--3-3--3-3--3-3--3-3--|--2-2--2-2--2-2--2-2--|--2-2--2-2------------|#
   1    2    3    4       1    2    3    4       1    2    3    4     
 1    2    3    4  (End of Part_H)
*** time - 2:30
Play Part_D
  Repeat it 4 times.
*** time - 2:45
Play Part_E
 Repeat it 2 times.
*** time - 2:52
Play Part_F
  Repeat it 2 times.
*** time - 3:06
Play Part_H
// The last bar isn't played.

*** time - 3:20
Play Part_A

*** time - 3:21
Play Part_B
Repeat it 4 times.
*** time - 3:39
Part_I
#|----------------------|----------------------|----------------------|----------------------|#
#|----------------------|----------------------|----------------------|----------------------|#
#|----------------------|----------------------|----------------------|----------------------|#
#|----------------------|----------------------|----------------------|----------------------|#
#|-------3~---6~---5~---|--5~---6~---3~--------|--2---------10-9------|--9-7-----------------|#
#|--3~------------------|----------------------|--0----0-0------------|----------------------|#
 |  1    2    3    4    |  1    2    3    4    |  1    2    3    4   
|  1    2    3    4    | 
 |                      |                      |                     
|                      | 
 |                      |                      |                     
|                      | 
#|----------------------|----------------------|----------------------|----------------------|#
#|----------------------|----------------------|----------------------|----------------------|#
#|----------------------|----------------------|----------------------|----------------------|#
#|------------5~---3~---|--5~---6~---3~--------|----------------------|----------------------|#
#|-------6~-------------|----------------------|--2---------5-4-------|--4-0-----------------|#
#|--3~------------------|----------------------|--0----0-0--3-2-------|--2-0-----------------|#
    1    2    3    4       1    2    3    4       1    2    3    4    
  1    2    3    4  (End of Part_I)
    
        

      
"Embryo Of Lies"
"Embryo Of Lies"
"A Canorous Quintet" "Embryo Of Lies" "39380752"
      
     
     A Canorous Quintet - Embryo Of Lies TabEmbryo Of Lies tabs @
911Tabs
  
   
     
 
 
    
  
  
  
   
   
     
    Quick tip, so you can enjoy Embryo Of Lies Tab even more:   
    
     If you spend just 10 seconds to register, you will be able to
comment on all the chords and tabs and rate them. 
       You will as well be able to comment on videos of your fellow
guitarists and give them ratings from 1 to 5 ... And - of course - 
       you can share your own videos with them and see what they think
of you. :)
       Click here to join us!      
Embryo Of Lies Tab!
     
Embryo Of Lies Tab, 


   Current rating: 2
   
   Rate: 
   1 
   2 
   3 
   4 
   5
  
  
  
    
    
  
  
 
 
     
      
     
     
 
 
  
  
   The chord pattern is shown here.   
  
  
  
 
 
 
 


  

 


 c4:
"http://www.yourchords.com/145704/A-Canorous-Quintet/Embryo-Of-Lies-Tab/"
The Best Equipment Deals | Best Music Deals
Midi Mime Types SiteMap Contact Subscribe © 2014 JimmyLandStudios