Alejandro Acoustic Tab - All Time Low

"Alejandro Acoustic"
"All Time Low"
"39380751";

     
"Alejandro Acoustic"
"Alejandro Acoustic"
 All Time Low - Alejandro Acoustic Guitar Tab
    Alejandro Acoustic Tab
    
       
          Alejandro - All Time Low

Email: vana304@hotmail.com (for any questions only)! :)

Something I learnt by ear but it's not exactly how All Time Low played
it at the Live 
but this sounds similar (:
This is my first tab that I've done so it may not be perfect!
You can check out my video of me playing it for the strumming etc. (:
http://www.youtube.com/watch?v=NjclyF7_1u8

The strumming that I've written on the tab may not be exact, just
listen to the song and 
get it! It's not that difficult! :D

Tuning: DAGDAD

Intro:
'Oh, oh...' - palm mute for each chord (strum up)
d|---------------------------|
A|---------------------------|
G|-7-7----7-7----9-9-9-9-----|
D|-5-5----0-0----7-7-7-7-----|
A|-5-5----0-0----7-7-7-7-----|
D|-5-5----0-0----7-7-7-7-----|   x2

For the 2nd time on the last chord, strum 3 times

Verse 1:
'She's got both hands...'
d|------------------------------|
A|------------------------------|
G|-7~-----6~-----7---11--9------|
D|-5~-----4~-----5---9---7------|
A|-5~-----4~-----5---9---7------|
D|-5~-----4~-----5---9---7------|   x2

After that strum a few times on the last chord and then go into
pre-chorus

Pre-Chorus:
'You know that I love you boy...' (Strumming is something like DDDUD)
d|-----------------------------------------------|
A|-----------------------------------------------|
G|-7-7-7-7-7-----7-7-7-7-7-----9-9-9-9-9-9-9-9---|
D|-5-5-5-5-5-----0-0-0-0-0-----7-7-7-7-7-7-7-7---|
A|-5-5-5-5-5-----0-0-0-0-0-----7-7-7-7-7-7-7-7---|
D|-5-5-5-5-5-----0-0-0-0-0-----7-7-7-7-7-7-7-7---|

d|-----------------------------------------------|
A|-----------------------------------------------|
G|-7-7-7-7-7-----7-7-7-7-7-----9-9-9-9-9---------|
D|-5-5-5-5-5-----0-0-0-0-0-----7-7-7-7-7---------|
A|-5-5-5-5-5-----0-0-0-0-0-----7-7-7-7-7---------|

    
        

      
"Alejandro Acoustic"
"Alejandro Acoustic"
"All Time Low" "Alejandro Acoustic" "39380752"
      
     
     All Time Low - Alejandro Acoustic TabAlejandro Acoustic     
People who played All Time Low - Alejandro Acoustic Tab also played
these songs by 
      All Time Low:
      Remembering Sunday Chords, Dear Maria Count Me In Chords,
Therapy Chords, Weightless Chords, Jasey Rae Acoustic Chords, Six Feet
Under The Stars Chords, Dear Maria Chords, Stay Awake Chords  
  
  
  
   
   
     
    About the artist behind Alejandro Acoustic Tab:   
    
     All Time Low is an American pop-punk band from
Lutherville-Timonium, Maryland.Indexed at Wikipedia.      
Alejandro Acoustic Tab!
     
Alejandro Acoustic Tab, 


   Current rating: 0
   
   Rate: 
   1 
   2 
   3 
   4 
   5
  
  
  
    
    
  
  
 
  
 
 
  
  
   The chord pattern is shown here.   
  
  
  
 
 
 
 


  

 


 c4:
"http://www.yourchords.com/262025/All-Time-Low/Alejandro-Acoustic-Tab/"
The Best Equipment Deals | Best Music Deals
Midi Mime Types SiteMap Contact Subscribe © 2014 JimmyLandStudios