Bob Dylan - The Times They Are a-Changin' (1964)

       1. The Times They Are A-Changin' 2. Ballad Of Hollis Brown 3. With God On Our Side 4. One Too Many Mornings 5. North Country Blues 6. Only A Pawn In Their Game 7. Boots Of Spanish Leather 8. When The Ship Comes In 9. The Lonesome Death Of Hattie Carroll 1
       
	 File: 76  Score: 13.9  against: +The +Times They Are A-changin Tab - Bob Dylan Guitar Chords
       
  The Times They Are A-changin Tab - Bob Dylan

"The Times They Are A-changin"
"Bob Dylan"
"39380751";

     
"The Times They Are A-changin"
"The Times They Are A-changin"
 Bob Dylan - The Times They Are A-changin Guitar Tab
    The Times They Are A-changin Tab
    
       
    

  (PLEASE NOTE: I TRANSLATED THIS TAB FROM THE CHORDS THAT ARE
PROVIDED     FROM 
OTHERS I SPENT ALOT OF TIME ON THIS SO APPRECIATE IT! THANKS AND
ENJOY)

dpk009@live.com
Times they are a changing translated
     G             Em         C         G
Come gather 'round people wherever you  roam
e---3--3--3--3--0--0--0--0--0--0--3—-3--3--3--3--3--|
B---3--3--3--3--0--0--0--1--1—-1--3--3--3—-3--3--3--|
G---4--4--4--4--0--0--0--0--0--0--4--4--4—-4--4--4--| 
D---5--5--5—-5--3--3--3--2--2--2--5--5--5—-5--5--5--|
A---------------3--3--3--3--3--3--------------------|
E---------------3--3--3-----------------------------|
    G            Am      C              D
And admit that the waters around you have grown
E--3--3--3--3--0--0--0--0--0--0--2--2--2--2--2--2--2-|
B--3--3--3--3--1--1--1--1--1--1--3--3--3--3—-3--3--3-|
G--4--4--4--4--2--2--0--0--0--0--2--2--2--2--2--2--2-|
D--5--5--5--5--2--2--2--2--2--2--0--0--0--0--0--0--0-|
A--------------x--x--3--3--3--3----------------------|
E--------------3--3----------------------------------|
      G            Em             C               G
And accept it that soon you'll be drenched to the bone
E----3--3--3--3--0--0--0--0--0--0--0--0--3--3--3--3--3--3---|
B----3--3--3--3--0--0--0--0--1--1--1--1--3--3--3--3--3--3---|
G----4--4--4--4--0--0--0--0--0--0--0--0--4--4--4--4--4--4---|
D----5--5--5--5--3--3--3--3--2--2--2--2--5--5--5--5--5--5---|
A----------------3--3--3--3--3--3--3--3---------------------|
E----------------3--3--3--3---------------------------------|

        G       Am           D
If your time to you is worth savin'
E-3--3--3--3--0--0--0---2--2--2--2--2--2-------------------|
B-3--3--3--3--1--1--1---3--3--3--3--3--3-------------------|
G-4--4--4--4--0--0--0---2--2--2--2--2--2-------------------|
D-5--5--5--5--2--2--2---0--0--0--0--0--0-------------------|
A-------------x--x--x--------------------------------------|
E-------------3--3--3--------------------------------------|

         D            D7                 G           D
Then you better start swimmin' or you'll sink like a stone,
E--2--2--2--2--2--3--3--3--3--3---3--3--3--2--2--2--2-------|
B--3—-3--3--3--3--1—-1--1--1--1---3--3--3--3--3--3—-3-------|
G--2--2--2--2--2--2--2--2--2--2---4--4--4--2--2--2--2-------|
D--0--0--0--0--0------------------5--5--5--0--0--0--0-------|
A-----------------------------------------------------------| 
E-----------------------------------------------------------|


        G                 C    D  G
For the times, they are a chang - in'
E--2--3--3--3--3--3--0--0--2--3--3--3--3--3--3--3--3--------|
B--3--3--3--3--3--3—-1--1--3--3--3--3--3--3--3--3--3--------|
G--2--4--4--4--4--4--0--0--2--4--4--4--4--4--4--4--4--------|
D--0--5--5--5--5--5--2--2--0--5--5--5--5--5--5--5--5--------|
A--------------------3--3-----------------------------------|
E-----------------------------------------------------------|
     G             Em         C         G
Come writers and critics who prophecize with your pen
e---3--3--3--3--0--0--0--0--0--0--3—-3--3--3--3--3--|
B---3--3--3--3--0--0--0--1--1—-1--3--3--3—-3--3--3--|
G---4--4--4--4--0--0--0--0--0--0--4--4--4—-4--4--4--| 
D---5--5--5—-5--3--3--3--2--2--2--5--5--5—-5--5--5--|
A---------------3--3--3--3--3--3--------------------|
E---------------3--3--3-----------------------------|
    G            Am      C              D
And keep your eyes wide the chance won't come again                   
  
E--3--3--3--3--0--0--0--0--0--0--2--2--2--2--2--2--2-|
B--3--3--3--3--1--1--1--1--1--1--3--3--3--3—-3--3--3-|
G--4--4--4--4--2--2--0--0--0--0--2--2--2--2--2--2--2-|
D--5--5--5--5--2--2--2--2--2--2--0--0--0--0--0--0--0-|
A--------------x--x--3--3--3--3----------------------|
E--------------3--3----------------------------------|
      G            Em             C               G
And don't speak too soon for the wheel's still in spin
E----3--3--3--3--0--0--0--0--0--0--0--0--3--3--3--3--3--3---|
B----3--3--3--3--0--0--0--0--1--1--1--1--3--3--3--3--3--3---|
G----4--4--4--4--0--0--0--0--0--0--0--0--4--4--4--4--4--4---|
D----5--5--5--5--3--3--3--3--2--2--2--2--5--5--5--5--5--5---|
A----------------3--3--3--3--3--3--3--3---------------------|
E----------------3--3--3--3---------------------------------|

        G        Am          D
And there's  no  tellin' who that it's namin'                         
        
E-3--3--3--3--0--0--0---2--2--2--2--2--2-------------------|
B-3--3--3--3--1--1--1---3--3--3--3--3--3-------------------|
G-4--4--4--4--0--0--0---2--2--2--2--2--2-------------------|
D-5--5--5--5--2--2--2---0--0--0--0--0--0-------------------|
A-------------x--x--x--------------------------------------|
E-------------3--3--3--------------------------------------|

 

        D            D7                 G          D
        For  the  loser  now  will  be  later  to  win
E--2--2--2--2--2--3--3--3--3--3---3--3--3--2--2--2--2-------|
B--3—-3--3--3--3--1—-1--1--1--1---3--3--3--3--3--3—-3-------|
G--2--2--2--2--2--2--2--2--2--2---4--4--4--2--2--2--2-------|
D--0--0--0--0--0------------------5--5--5--0--0--0--0-------|
A-----------------------------------------------------------| 
E-----------------------------------------------------------|


        G                 C    D  G
For the times, they are a chang - in'
E--2--3--3--3--3--3--0--0--2--3--3--3--3--3--3--3--3--------|
B--3--3--3--3--3--3—-1--1--3--3--3--3--3--3--3--3--3--------|
G--2--4--4--4--4--4--0--0--2--4--4--4--4--4--4--4--4--------|
D--0--5--5--5--5--5--2--2--0--5--5--5--5--5--5--5--5--------|
A--------------------3--3-----------------------------------|
E-----------------------------------------------------------|
     G             Em         C         G
     Come mothers and fathers throughout the land
e---3--3--3--3--0--0--0--0--0--0--3—-3--3--3--3--3--|
B---3--3--3--3--0--0--0--1--1—-1--3--3--3—-3--3--3--|
G---4--4--4--4--0--0--0--0--0--0--4--4--4—-4--4--4--| 
D---5--5--5—-5--3--3--3--2--2--2--5--5--5—-5--5--5--|
A---------------3--3--3--3--3--3--------------------|
E---------------3--3--3-----------------------------|
    G            Am      C              D
    And don't criticize  what you don't understand                    
              
E--3--3--3--3--0--0--0--0--0--0--2--2--2--2--2--2--2-|
B--3--3--3--3--1--1--1--1--1--1--3--3--3--3—-3--3--3-|
G--4--4--4--4--2--2--0--0--0--0--2--2--2--2--2--2--2-|
D--5--5--5--5--2--2--2--2--2--2--0--0--0--0--0--0--0-|
A--------------x--x--3--3--3--3----------------------|
E--------------3--3----------------------------------|
      G             Em            C              G
Your  sons and your daughters are beyond  your   command
E----3--3--3--3--0--0--0--0--0--0--0--0--3--3--3--3--3--3---|
B----3--3--3--3--0--0--0--0--1--1--1--1--3--3--3--3--3--3---|
G----4--4--4--4--0--0--0--0--0--0--0--0--4--4--4--4--4--4---|
D----5--5--5--5--3--3--3--3--2--2--2--2--5--5--5--5--5--5---|
A----------------3--3--3--3--3--3--3--3---------------------|
E----------------3--3--3--3---------------------------------|

       G       Am           D
  Your old road is rapidly again'
E-3--3--3--3--0--0--0---2--2--2--2--2--2-------------------|
B-3--3--3--3--1--1--1---3--3--3--3--3--3-------------------|
G-4--4--4--4--0--0--0---2--2--2--2--2--2-------------------|
D-5--5--5--5--2--2--2---0--0--0--0--0--0-------------------|
A-------------x--x--x--------------------------------------|
E-------------3--3--3--------------------------------------|

        D            D7                 G           D
 Please get out of the new one if you can't lend a hand
E--2--2--2--2--2--3--3--3--3--3---3--3--3--2--2--2--2-------|
B--3—-3--3--3--3--1—-1--1--1--1---3--3--3--3--3--3—-3-------|
G--2--2--2--2--2--2--2--2--2--2---4--4--4--2--2--2--2-------|
D--0--0--0--0--0------------------5--5--5--0--0--0--0-------|
A-----------------------------------------------------------| 
E-----------------------------------------------------------|


        G                 C    D  G
For the times, they are a chang - in'
E--2--3--3--3--3--3--0--0--2--3--3--3--3--3--3--3--3--------|
B--3--3--3--3--3--3—-1--1--3--3--3--3--3--3--3--3--3--------|
G--2--4--4--4--4--4--0--0--2--4--4--4--4--4--4--4--4--------|
D--0--5--5--5--5--5--2--2--0--5--5--5--5--5--5--5--5--------|
A--------------------3--3-----------------------------------|
E-----------------------------------------------------------|

     G             Em         C         G
Come senators, congressmen please heed the call
e---3--3--3--3--0--0--0--0--0--0--3—-3--3--3--3--3--|
B---3--3--3--3--0--0--0--1--1—-1--3--3--3—-3--3--3--|
G---4--4--4--4--0--0--0--0--0--0--4--4--4—-4--4--4--| 
D---5--5--5—-5--3--3--3--2--2--2--5--5--5—-5--5--5--|
A---------------3--3--3--3--3--3--------------------|
E---------------3--3--3-----------------------------|
    G            Am      C              D
Don't stand in the doorway, don't block up the hall
E--3--3--3--3--0--0--0--0--0--0--2--2--2--2--2--2--2-|
B--3--3--3--3--1--1--1--1--1--1--3--3--3--3—-3--3--3-|
G--4--4--4--4--2--2--0--0--0--0--2--2--2--2--2--2--2-|
D--5--5--5--5--2--2--2--2--2--2--0--0--0--0--0--0--0-|
A--------------x--x--3--3--3--3----------------------|
E--------------3--3----------------------------------|
      G            Em             C               G
  For he that gets hurt will be he who has stalled
E----3--3--3--3--0--0--0--0--0--0--0--0--3--3--3--3--3--3---|
B----3--3--3--3--0--0--0--0--1--1--1--1--3--3--3--3--3--3---|
G----4--4--4--4--0--0--0--0--0--0--0--0--4--4--4--4--4--4---|
D----5--5--5--5--3--3--3--3--2--2--2--2--5--5--5--5--5--5---|
A----------------3--3--3--3--3--3--3--3---------------------|
E----------------3--3--3--3---------------------------------|

        G        Am           D
There's a battle outside and it's ragin'
E-3--3--3--3--0--0--0---2--2--2--2--2--2-------------------|
B-3--3--3--3--1--1--1---3--3--3--3--3--3-------------------|
G-4--4--4--4--0--0--0---2--2--2--2--2--2-------------------|
D-5--5--5--5--2--2--2---0--0--0--0--0--0-------------------|
A-------------x--x--x--------------------------------------|
E-------------3--3--3--------------------------------------|

         D            D7                 G          D
It'll soon shake your windows and rattle your walls
E--2--2--2--2--2--3--3--3--3--3---3--3--3--2--2--2--2-------|
B--3—-3--3--3--3--1—-1--1--1--1---3--3--3--3--3--3—-3-------|
G--2--2--2--2--2--2--2--2--2--2---4--4--4--2--2--2--2-------|
D--0--0--0--0--0------------------5--5--5--0--0--0--0-------|
A-----------------------------------------------------------| 
E-----------------------------------------------------------|


        G                 C    D  G
For the times, they are a chang - in'
E--2--3--3--3--3--3--0--0--2--3--3--3--3--3--3--3--3--------|
B--3--3--3--3--3--3—-1--1--3--3--3--3--3--3--3--3--3--------|
G--2--4--4--4--4--4--0--0--2--4--4--4--4--4--4--4--4--------|
D--0--5--5--5--5--5--2--2--0--5--5--5--5--5--5--5--5--------|
A--------------------3--3-----------------------------------|
E-----------------------------------------------------------|

     G             Em         C         G
The line it is drawn the curse it is cast
e---3--3--3--3--0--0--0--0--0--0--3—-3--3--3--3--3--|
B---3--3--3--3--0--0--0--1--1—-1--3--3--3—-3--3--3--|
G---4--4--4--4--0--0--0--0--0--0--4--4--4—-4--4--4--| 
D---5--5--5—-5--3--3--3--2--2--2--5--5--5—-5--5--5--|
A---------------3--3--3--3--3--3--------------------|
E---------------3--3--3-----------------------------|
   
     G            Am     C              D
     The slow one now will later be fast
E--3--3--3--3--0--0--0--0--0--0--2--2--2--2--2--2--2-|
B--3--3--3--3--1--1--1--1--1--1--3--3--3--3—-3--3--3-|
G--4--4--4--4--2--2--0--0--0--0--2--2--2--2--2--2--2-|
D--5--5--5--5--2--2--2--2--2--2--0--0--0--0--0--0--0-|
A--------------x--x--3--3--3--3----------------------|
E--------------3--3----------------------------------|
      G             Em             C               G
              As the present now will later be past
E----3--3--3--3--0--0--0--0--0--0--0--0--3--3--3--3--3--3---|
B----3--3--3--3--0--0--0--0--1--1--1--1--3--3--3--3--3--3---|
G----4--4--4--4--0--0--0--0--0--0--0--0--4--4--4--4--4--4---|
D----5--5--5--5--3--3--3--3--2--2--2--2--5--5--5--5--5--5---|
A----------------3--3--3--3--3--3--3--3---------------------|
E----------------3--3--3--3---------------------------------|

        G       Am           D
    The order is rapidly fadin'
E-3--3--3--3--0--0--0---2--2--2--2--2--2-------------------|
B-3--3--3--3--1--1--1---3--3--3--3--3--3-------------------|
G-4--4--4--4--0--0--0---2--2--2--2--2--2-------------------|
D-5--5--5--5--2--2--2---0--0--0--0--0--0-------------------|
A-------------x--x--x--------------------------------------|
E-------------3--3--3--------------------------------------|

         D            D7                 G           D
    And the first one now will later be  last
E--2--2--2--2--2--3--3--3--3--3---3--3--3--2--2--2--2-------|
B--3—-3--3--3--3--1—-1--1--1--1---3--3--3--3--3--3—-3-------|
G--2--2--2--2--2--2--2--2--2--2---4--4--4--2--2--2--2-------|
D--0--0--0--0--0------------------5--5--5--0--0--0--0-------|
A-----------------------------------------------------------| 
E-----------------------------------------------------------|


        G                 C    D  G
For the times, they are a chang - in'
E--2--3--3--3--3--3--0--0--2--3--3--3--3--3--3--3--3--------|
B--3--3--3--3--3--3—-1--1--3--3--3--3--3--3--3--3--3--------|
G--2--4--4--4--4--4--0--0--2--4--4--4--4--4--4--4--4--------|
D--0--5--5--5--5--5--2--2--0--5--5--5--5--5--5--5--5--------|
A--------------------3--3-----------------------------------|
E-----------------------------------------------------------|

    
        

      
"The Times They Are A-changin"
"The Times They Are A-changin"
"Bob Dylan" "The Times They Are A-changin" "39380752"
      
     
     Bob Dylan - The Times They Are A-changin TabThe Times They Are
A-changin      People who played Bob Dylan - The Times They Are
A-changin Tab also played these songs by 
      Bob Dylan:
      Forever Young Chords, Blowing In The Wind Chords, To Make You
Feel My Love Chords, Like A Rolling Stone Chords, Catch The Wind
Chords, Knockin On Heavens Door Chords, All Along The Watchtower
Chords, Ring Them Bells Chords, Blowin In The Wind Chords, I Shall Be
Released Chords  
  
  
  
   
   
     
    About the artist behind The Times They Are A-changin Tab:   
    
     Bob Dylan (born Robert Allen Zimmerman May 24, 1941) is an
American singer-songwriter, author, musician, and a poet who has been
a major figure in popular music for five decades. Much of Dylan's most
celebrated work dates from the 1960s, when he became an informal
chronicler and a reluctant figurehead of American unrest. A number of
his songs, such as "Blowin' in the Wind" and "The Times They Are
a-Changin'",[1] became anthems of the anti-war and civil rights
movements. His most recent studio album, Modern Times, released on
August 29, 2006, entered the U.S. album chart at number one, and that
same year was named Album of the Year by Rolling Stone
magazine.[2]Dylan's early lyrics incorporated politics, social
commentary, philosophy and literary influences, defying existing pop
music conventions and appealing widely to the counterculture. While
expanding and personalizing musical styles, he has shown steadfast
devotion to many traditions of American song, from folk and
country/blues to gospel, rock and roll and rockabilly, to English,
Scottish and Irish folk music, and even jazz and swing.[3][4]Dylan
performs with the guitar, keyboard and harmonica. Backed by a changing
lineup of musicians, he has toured steadily since the late 1980s on
what has been dubbed the "Never Ending Tour". Although his
accomplishments as performer and recording artist have been central to
his career, his songwriting is generally regarded as his greatest
contribution.[5]Over many years, Dylan has been recognized and honored
for his songwriting, performing, and recording. His records have
earned Grammy, Golden Globe, and Academy Awards, and he has been
inducted into the Rock and Roll Hall of Fame, Nashville Songwriters
Hall of Fame and Songwriters Hall of Fame. In 1999, Dylan was included
in TIME Magazine's 100 most influential people of the 20th century,
and in 2004, he was ranked number two in Rolling Stone magazine's list
of "Greatest Artists of All Time", second only to The Beatles.[6] In
January 1990, Dylan was made a Commandeur des Arts et des Lettres by
French Minister of Culture Jack Lang; in 2000, he was awarded the
Polar Music Prize by the Royal Swedish Academy of Music;[7] and in
2007, Dylan was awarded the Prince of Asturias Award in Arts in Spain
by the FundaciΓ³n PrΓ­ncipe de Asturias. He has been nominated several
times for the Nobel Prize in Literature.[8][9][10]In 2008, Dylan was
awarded a Pulitzer Prize Special Citation for his "profound impact on
popular music and American culture, marked by lyrical compositions of
extraordinary poetic power."[11] Previous recipients of this award
include Thelonious Monk and John Coltrane.[12]Indexed at Wikipedia.   
  
The Times They Are A-changin Tab!
     
The Times They Are A-changin Tab, 


   Current rating: 0
   
   Rate: 
   1 
   2 
   3 
   4 
   5
  
  
  
    
  
  
  
   

   

  
  
    
    
  
  
 
 
     
      
     
     
 
 
  
  
   The chord pattern is shown here.   
  
  
  
 
 
 
 


  

 


 c4:
"http://www.yourchords.com/245599/Bob-Dylan/The-Times-They-Are-A-changin-Tab/"
The Best Equipment Deals | Best Music Deals
Midi Mime Types SiteMap Contact Subscribe © 2014 JimmyLandStudios