Guitar Tablature

       Diatonic scale on C, guitar tablature
       
	 File: 82  Score: 5  against: +When +We Were Beautiful Tab - Bon Jovi Guitar Chords
       
  When We Were Beautiful Tab - Bon Jovi

"When We Were Beautiful"
"Bon Jovi"
"39380751";

     
"When We Were Beautiful"
"When We Were Beautiful"
 Bon Jovi - When We Were Beautiful Guitar Tab
    When We Were Beautiful Tab
    
       
   
-------------------------------------------------------------------------------
        When We Were Beautiful - Bon Jovi
-------------------------------------------------------------------------------
Tabbed by:pelanmar
Email: pelanmar@yahoo.com

Tuning:Standard

Great song and i believe im the first to tab it all...enjoy
Intro and Verse

e|----------7---------7----------7-------------------------------------------|
B|--------------10-------10------------10------keep doing
that---------------|
G|---------------------------------------------------------------------------|
D|---------------------------------------------------------------------------|
A|----0----------------------------------------------------------------------|
E|---------------------------------------------------------------------------|

1st chorus keep playing this kind of chord till the next verse (if you
want 
you can also play it in the verse)

e|---------------------------------------------------------------------------|
B|----10---10--10--10--------------------------------------------------------|
G|----7----7----7---7------------do that till the
verse----------------------|
D|---------------------------------------------------------------------------|
A|---------------------------------------------------------------------------|
E|---------------------------------------------------------------------------|

Real Chorus

         A      G      D     A
e|---------------------------------------------------------------------------|
B|---------------------------------------------------------------------------|
G|---------------------7-----------------------------------------------------|
D|-------7------5------7-----7-----------------------------------------------|
A|-------7------5------5-----7-----------------------------------------------|
E|-------5------3------------5-----------------------------------------------|

Sha La La...
           A     D     A     D
e|---------------------------------------------------------------------------|
B|---------------------------------------------------------------------------|
G|---------------7-----------7-----------------------------------------------|
D|---------7-----7-----7-----7-----------------------------------------------|
A|---------7-----5-----7-----5-----------------------------------------------|
E|---------5-----------5-----------------------------------------------------|

Solo:

e|------------------------9---9---9------------------------------------------|
B|-------------------------------------9------5---7---7br---5----------------|
G|----4b----2----------9---9---9-------7------------------------7----7p5--2--|
D|---------------------------------------------------------------------------|
A|---------------------------------------------------------------------------|
E|---------------------------------------------------------------------------|

e|-----9---10---9-------------9---10---9------------9---10---9---------------|
B|------------------10---------------------10--------------------10----------|
G|-----------------------12---------------------11--------------------9------|
D|---------------------------------------------------------------------------|
A|---------------------------------------------------------------------------|
E|---------------------------------------------------------------------------|

e|---------------------------------------------17----------------------------|
B|--------------------------15----17----17b----------17----------------------|
G|-----6/7-------------------------------------------------------------------|
D|---------------------------------------------------------------------------|
A|---------------------------------------------------------------------------|
E|---------------------------------------------------------------------------|

e|---------------------------------------------------------------------------|
B|-------17----15---15-------------------------------------------------------|
G|-----------------------15--------------------------------------------------|
D|----------------------------15---------------------------------------------|
A|---------------------------------------------------------------------------|
E|---------------------------------------------------------------------------|
************************************

| /   slide up
| \   slide down
| h   hammer-on
| p   pull-off
| ~   vibrato
| +   harmonic
| x   Mute note
| b   Bend
| pb  Pre-bend
| br  Bend release
| pbr Pre-bend release
| brb Bend release bend

************************************
    
        

      
"When We Were Beautiful"
"When We Were Beautiful"
"Bon Jovi" "When We Were Beautiful" "39380752"
      
     
     Bon Jovi - When We Were Beautiful TabWhen We Were Beautiful     
People who played Bon Jovi - When We Were Beautiful Tab also played
these songs by 
      Bon Jovi:
      Its My Life Chords, Wanted Dead Or Alive Chords, You Give Love A
Bad Name Chords, Its My Life Acoustic Chords, Bed Of Roses Chords, Bed
Of Roses Acoustic Chords, Always Chords, Thank You For Loving Me
Chords, Livin On A Prayer Chords, Blaze Of Glory Chords, Have A Nice
Day Chords  
  
  
  
   
   
     
    About the artist behind When We Were Beautiful Tab:   
    
     Jon Bon Jovi (born John Francis Bongiovi, Jr. on March 2, 1962)
is an American musician, songwriter and actor. As lead singer and
founder of the rock band Bon Jovi, he has sold over 120 million albums
worldwide.[1] He is also the owner of an Arena Football League team,
the Philadelphia Soul.Indexed at Wikipedia.      
When We Were Beautiful Tab!
     
When We Were Beautiful Tab, 


   Current rating: 0
   
   Rate: 
   1 
   2 
   3 
   4 
   5
  
  
  
    
  
  
  
   

   

  
  
    
    
  
  
 
 
     
      
     
     
 
 
  
  
   The chord pattern is shown here.   
  
  
  
 
 
 
 


  

 


 c4:
"http://www.yourchords.com/245665/Bon-Jovi/When-We-Were-Beautiful-Tab/"
The Best Equipment Deals | Best Music Deals
Midi Mime Types SiteMap Contact Subscribe © 2014 JimmyLandStudios