Dont Panic Tab (ver 8) - Coldplay

"Dont Panic"
"Coldplay"
"39380751";

     
"Dont Panic"
"Dont Panic"
 Coldplay - Dont Panic (ver 8) Guitar Tab
    Dont Panic Tab
    
       
    #----------------------------------PLEASE
NOTE---------------------------------#
#This file is the author's own work and represents their
interpretation of the #
#song. You may only use this file for private study, scholarship, or
research. #
#------------------------------------------------------------------------------#

                                   DON'T PANIC
                             As recorded by Coldplay
                        (From the 2004 Album PARACHUTES)

PLEASE RATE!

Words by Colplay

Music by Coldplay
Arranged by John Spitznagel
Transcribed by John Spitznagel

Gtr I (E A D G B E) - 'Rythm'
Gtr II (E A D G B E) - 'Lead'

  Q=125
 4/4
  Gtr I
  Q  E E  E  E E E    E  E E E  E  E E E
|-0--x-0-(0)-0-x-0-|-(0)-0-x-0-(0)-0-x-x-|
|-1--x-1-(1)-1-x-1-|-(1)-1-x-1-(1)-1-x-x-|
|-2--x-0h=2--2-x-0h|==2--2-x-0h=2--2-x-x-|
|-3--x-3-(3)-3-x-3-|-(3)-3-x-3-(3)-3-x-x-|
|-3--x-3-(3)-3-x-3-|-(3)-3-x-3-(3)-3-x-x-|
|------------------|---------------------|
  Q  E E  E  E E E    E  E E E  E  E E E
|-0--x-0-(0)-0-x-0-|-(0)-0-x-0-(0)-0-x-x--|
|-1--x-1-(1)-1-x-1-|-(1)-1-x-1-(1)-1-x-x--|
|-2--x-0h=2--2-x-0h|==2--2-x-0h=2--2-x-x--|
|-3--x-3-(3)-3-x-3-|-(3)-3-x-3-(3)-3-x-x--|
|-3--x-3-(3)-3-x-3-|-(3)-3-x-3-(3)-3-x-x--|
|------------------|----------------------|
   4/4
    Gtr I
    Q  E E +E  E E E   Q  E E +E  E E E
||--0--x-3-(3)-0-x-x-|-0--x-3-(3)-0-x-x-|
||o-1--x-1-(1)-1-x-x-|-1--x-1-(1)-1-x-x-|
||--2--x-2-(2)-2-x-x-|-0--x-0-(0)-0-x-x-|
||--2--x-2-(2)-2-x-x-|-2--x-2-(2)-2-x-x-|
||o-0--x-0-(0)-0-x-x-|-3--x-3-(3)-3-x-x-|
||-------------------|------------------|
  Q  E E  E  E E E    E  E E E  E  E E E
|-0--x-0-(0)-0-x-0-|-(0)-0-x-0-(0)-0-x-x--||
|-1--x-1-(1)-1-x-1-|-(1)-1-x-1-(1)-1-x-x-o||
|-2--x-0h=2--2-x-0h|==2--2-x-0h=2--2-x-x--||
|-3--x-3-(3)-3-x-3-|-(3)-3-x-3-(3)-3-x-x--||
|-3--x-3-(3)-3-x-3-|-(3)-3-x-3-(3)-3-x-x-o||
|------------------|----------------------||
   Q     E  E  E  E  E  E    E  E  E  E  E  E  E  E
|--1-----x--1--1--1--x--1-|--1--1--x--1--1--1--x--x-|
|--3-----x--3--3--3--x--3-|--3--3--x--3--3--3--x--x-|
|--2-----x--2--2--2--x--2-|--2--2--x--2--2--2--x--x-|
|--0-----x--0--0--0--x--0-|--0--0--x--0--0--0--x--x-|
|--0-----x--0--0--0--x--0-|--0--0--x--0--0--0--x--x-|
|-------------------------|-------------------------|
|
| Gtr II
|  E  E  E  E  E  E  E  E    E  E  E  E  E  E  E  E
|-------------------------|-------------------------|
|-10-10-10-10-10-10-10-10-|-12-12-12-13-13-13-13-13-|
|-------------------------|-------------------------|
|-------------------------|-------------------------|
|-------------------------|-------------------------|
|-------------------------|-------------------------|
  Q   E E +E  E E E   Q    E  E +E   E  E  E
|-0---x-0-(0)-0-x-x-|-3----x--3-(3)--3--x--x-|
|-1---x-1-(1)-1-x-x-|-3----x--3-(3)--3--x--x-|
|-2---x-2-(2)-2-x-x-|-0----x--0-(0)--0--x--x-|
|-2---x-2-(2)-2-x-x-|-0----x--0-(0)--0--x--x-|
|-0---x-0-(0)-0-x-x-|-2----x--2-(2)--2--x--x-|
|-------------------|-3----x--3-(3)--3--x--x-|
|
| E E E E  E  E E E   E  q    q      E  E  E
|-------------------|---15---15--------15----|
|-------------------|---12---12-----12----12-|
|-9-9-9-9--9--9-9-9-|------------------------|
|-------------------|------------------------|
|-------------------|------------------------|
|-------------------|------------------------|
   Q     E  E  E  E  E  E    E  E  E  E  E  E  E  E
|--1-----x--1--1--1--x--1-|--1--1--x--1--1--1--x--x-|
|--3-----x--3--3--3--x--3-|--3--3--x--3--3--3--x--x-|
|--2-----x--2--2--2--x--2-|--2--2--x--2--2--2--x--x-|
|--0-----x--0--0--0--x--0-|--0--0--x--0--0--0--x--x-|
|--0-----x--0--0--0--x--0-|--0--0--x--0--0--0--x--x-|
|-------------------------|-------------------------|
|
|  E  E  E  E  E  E  E  E    E  E  E  E  E  E  E  E
|-------------------------|-------------------------|
|-10-10-10-10-10-10-10-10-|-12-12-12-13-13-13-13-13-|
|-------------------------|-------------------------|
|-------------------------|-------------------------|
|-------------------------|-------------------------|
|-------------------------|-------------------------|
  Q    E  E E E  E E    E  E  E  E E E  E E
|-0----x--0-0-0--x-0-|--0--0--x--0-0-0--x-x-|
|-1----x--1-1-1--x-1-|--1--1--x--1-1-1--x-x-|
|-2----x--0-2-2--x-0-|--2--2--x--0-2-2--x-x-|
|-3----x--3-3-3--x-3-|--3--3--x--3-3-3--x-x-|
|-3----x--3-3-3--x-3-|--3--3--x--3-3-3--x-x-|
|--------------------|----------------------|
|
| E E  E  Q   E  E E   +E  E  E  Q   E  Q
|--------------------|----------------------|
|--------10----------|----------10----------|
|---9h10------9h10p9-|-(9)-9h10------9h10---|
|--------------------|----------------------|
|--------------------|----------------------|
|--------------------|----------------------|
  Q  E E +E  E E E   Q  E E +E  E E E   Q  E E  E  E E E    E  E E E 
E  E E E
|-0--x-3-(3)-0-x-x-|-0--x-0-(0)-0-x-x-|-0--x-0-(0)-0-x-0-|-(0)-0-x-0-(0)-0-x-x-|
|-1--x-1-(1)-1-x-x-|-1--x-1-(1)-1-x-x-|-1--x-1-(1)-1-x-1-|-(1)-1-x-1-(1)-1-x-x-|
|-2--x-2-(2)-2-x-x-|-0--x-0-(0)-0-x-x-|-2--x-0h=2--2-x-0h|==2--2-x-0h=2--2-x-x-|
|-2--x-2-(2)-2-x-x-|-2--x-2-(2)-2-x-x-|-3--x-3-(3)-3-x-3-|-(3)-3-x-3-(3)-3-x-x-|
|-0--x-0-(0)-0-x-x-|-3--x-3-(3)-3-x-x-|-3--x-3-(3)-3-x-3-|-(3)-3-x-3-(3)-3-x-x-|
|------------------|------------------|------------------|---------------------|
  Q  E E +E  E E E   Q  E E +E  E E E   Q  E E  E  E E E    E  E E E 
E  E E E
|-0--x-0-(0)-0-x-x-|-0--x-0-(0)-0-x-x-|-0--x-0-(0)-0-x-0-|-(0)-0-x-0-(0)-0-x-x-|
|-1--x-1-(1)-1-x-x-|-1--x-1-(1)-1-x-x-|-1--x-1-(1)-1-x-1-|-(1)-1-x-1-(1)-1-x-x-|
|-2--x-2-(2)-2-x-x-|-0--x-0-(0)-0-x-x-|-2--x-0h=2--2-x-0h|==2--2-x-0h=2--2-x-x-|
|-2--x-2-(2)-2-x-x-|-2--x-2-(2)-2-x-x-|-3--x-3-(3)-3-x-3-|-(3)-3-x-3-(3)-3-x-x-|
|-0--x-0-(0)-0-x-x-|-3--x-3-(3)-3-x-x-|-3--x-3-(3)-3-x-3-|-(3)-3-x-3-(3)-3-x-x-|
|------------------|------------------|------------------|---------------------|
   Q     E  E  E  E  E  E    E  E  E  E  E  E  E  E
|--1-----x--1--1--1--x--1-|--1--1--x--1--1--1--x--x-|
|--3-----x--3--3--3--x--3-|--3--3--x--3--3--3--x--x-|
|--2-----x--2--2--2--x--2-|--2--2--x--2--2--2--x--x-|
|--0-----x--0--0--0--x--0-|--0--0--x--0--0--0--x--x-|
|--0-----x--0--0--0--x--0-|--0--0--x--0--0--0--x--x-|
|-------------------------|-------------------------|
|
| Gtr II
|  E  E  E  E  E  E  E  E    E  E  E  E  E  E  E  E
|-------------------------|-------------------------|
|-10-10-10-10-10-10-10-10-|-12-12-12-13-13-13-13-13-|
|-------------------------|-------------------------|
|-------------------------|-------------------------|
|-------------------------|-------------------------|
|-------------------------|-------------------------|
  Q   E E +E  E E E   Q    E  E +E   E  E  E
|-0---x-0-(0)-0-x-x-|-3----x--3-(3)--3--x--x-|
|-1---x-1-(1)-1-x-x-|-3----x--3-(3)--3--x--x-|
|-2---x-2-(2)-2-x-x-|-0----x--0-(0)--0--x--x-|
|-2---x-2-(2)-2-x-x-|-0----x--0-(0)--0--x--x-|
|-0---x-0-(0)-0-x-x-|-2----x--2-(2)--2--x--x-|
|-------------------|-3----x--3-(3)--3--x--x-|
|
| E E E E  E  E E E   E  q    q      E  E  E
|-------------------|---15---15--------15----|
|-------------------|---12---12-----12----12-|
|-9-9-9-9--9--9-9-9-|------------------------|
|-------------------|------------------------|
|-------------------|------------------------|
|-------------------|------------------------|
   Q     E  E  E  E  E  E    E  E  E  E  E  E  E  E
|--1-----x--1--1--1--x--1-|--1--1--x--1--1--1--x--x-|
|--3-----x--3--3--3--x--3-|--3--3--x--3--3--3--x--x-|
|--2-----x--2--2--2--x--2-|--2--2--x--2--2--2--x--x-|
|--0-----x--0--0--0--x--0-|--0--0--x--0--0--0--x--x-|
|--0-----x--0--0--0--x--0-|--0--0--x--0--0--0--x--x-|
|-------------------------|-------------------------|
|
|  E  E  E  E  E  E  E  E    E  E  E  E  E  E  E  E
|-------------------------|-------------------------|
|-10-10-10-10-10-10-10-10-|-12-12-12-13-13-13-13-13-|
|-------------------------|-------------------------|
|-------------------------|-------------------------|
|-------------------------|-------------------------|
|-------------------------|-------------------------|
  Q    E  E  E  E  E E    E  E  E  E  E  E  E E
|-0----x--0-(0)-0--x-0-|-(0)-0--x--0-(0)-0--x-x-|
|-1----x--1-(1)-1--x-1-|-(1)-1--x--1-(1)-1--x-x-|
|-2----x--0h=2--2--x-0h|==2--2--x--0h=2--2--x-x-|
|-3----x--3-(3)-3--x-3-|-(3)-3--x--3-(3)-3--x-x-|
|-3----x--3-(3)-3--x-3-|-(3)-3--x--3-(3)-3--x-x-|
|----------------------|------------------------|
|
| E E  E  Q     E  E E   +E  E  E  Q     E  Q
|----------------------|------------------------|
|--------10------------|----------10------------|
|---9h10--------9h10p9-|-(9)-9h10--------9h10---|
|----------------------|------------------------|
|----------------------|------------------------|
|----------------------|------------------------|
    Q   E  E +E   E E E   Q   E  E +E   E E  E
||--0---x--3-(3)--0-x-x-|-0---x--3-(3)--0-x--x-|
||o-1---x--1-(1)--1-x-x-|-1---x--1-(1)--1-x--x-|
||--2---x--2-(2)--2-x-x-|-0---x--0-(0)--0-x--x-|
||--2---x--2-(2)--2-x-x-|-2---x--2-(2)--2-x--x-|
||o-0---x--0-(0)--0-x-x-|-3---x--3-(3)--3-x--x-|
||----------------------|----------------------|
|
|   Q.     Q      E Q     Q.     Q      E E  E
||----------------------|----------------------|
||o---------------------|----------------------|
||--9-----12-----10-9---|-9-----12-----10-9-10-|
||----------------------|----------------------|
||o---------------------|----------------------|
||----------------------|----------------------|
  Q   E E  E  E E  E     E  E E E  E  E E E
|-0---x-0-(0)-0-x--0--|-(0)-0-x-0-(0)-0-x-x---||
|-1---x-1-(1)-1-x--1--|-(1)-1-x-1-(1)-1-x-x--o||
|-2---x-0h=2--2-x--0h=|==2--2-x-0h=2--2-x-x---||
|-3---x-3-(3)-3-x--3--|-(3)-3-x-3-(3)-3-x-x---||
|-0---x-3-(3)-3-x--3--|-(3)-3-x-3-(3)-3-x-x--o||
|---------------------|-----------------------||
|
| Q.    H         +E    +W
|---------------------|-----------------------||
|---------------------|----------------------o||
|-7-----5---------(5)-|-(5)-------------------||
|---------------------|-----------------------||
|---------------------|----------------------o||
|---------------------|-----------------------||
   Q     E  E  E  E  E  E    E  E  E  E  E  E  E  E
|--1-----x--1--1--1--x--1-|--1--1--x--1--1--1--x--x-|
|--3-----x--3--3--3--x--3-|--3--3--x--3--3--3--x--x-|
|--2-----x--2--2--2--x--2-|--2--2--x--2--2--2--x--x-|
|--0-----x--0--0--0--x--0-|--0--0--x--0--0--0--x--x-|
|--0-----x--0--0--0--x--0-|--0--0--x--0--0--0--x--x-|
|-------------------------|-------------------------|
|
|  E  E  E  E  E  E  E  E    E  E  E  E  E  E  E  E
|-------------------------|-------------------------|
|-10-10-10-10-10-10-10-10-|-12-12-12-13-13-13-13-13-|
|-------------------------|-------------------------|
|-------------------------|-------------------------|
|-------------------------|-------------------------|
|-------------------------|-------------------------|
  Q   E E E E E E   Q    E  E E  E  E  E
|-0---x-0-0-0-x-x-|-3----x--3-3--3--x--x-|
|-1---x-1-1-1-x-x-|-3----x--3-3--3--x--x-|
|-2---x-2-2-2-x-x-|-0----x--0-0--0--x--x-|
|-2---x-2-2-2-x-x-|-0----x--0-0--0--x--x-|
|-3---x-3-3-3-x-x-|-2----x--2-2--2--x--x-|
|-----------------|-3----x--3-3--3--x--x-|
|
| E E E E E E E E   E  q    q    E  E  E
|-----------------|---15---15------15----|
|-----------------|---12---12---12----12-|
|-9-9-9-9-9-9-9-9-|----------------------|
|-----------------|----------------------|
|-----------------|----------------------|
|-----------------|----------------------|
   Q     E  E  E  E  E  E    E  E  E  E  E  E  E  E
|--1-----x--1--1--1--x--1-|--1--1--x--1--1--1--x--x-|
|--3-----x--3--3--3--x--3-|--3--3--x--3--3--3--x--x-|
|--2-----x--2--2--2--x--2-|--2--2--x--2--2--2--x--x-|
|--0-----x--0--0--0--x--0-|--0--0--x--0--0--0--x--x-|
|--0-----x--0--0--0--x--0-|--0--0--x--0--0--0--x--x-|
|-------------------------|-------------------------|
|
|  E  E  E  E  E  E  E  E    E  E  E  E  E  E  E  E
|-------------------------|-------------------------|
|-10-10-10-10-10-10-10-10-|-12-12-12-13-13-13-13-13-|
|-------------------------|-------------------------|
|-------------------------|-------------------------|
|-------------------------|-------------------------|
|-------------------------|-------------------------|
  Q    E   E  E E  E E    E  E  E   E  E E  E E
|-0----x---0--0-0--x-0-|--0--0--x---0--0-0--x-x-|
|-1----x---1--1-1--x-1-|--1--1--x---1--1-1--x-x-|
|-2----x---0--2-2--x-0-|--2--2--x---0--2-2--x-x-|
|-3----x---3--3-3--x-3-|--3--3--x---3--3-3--x-x-|
|-3----x---3--3-3--x-3-|--3--3--x---3--3-3--x-x-|
|----------------------|------------------------|
|
| E E  E   Q    E  E E   +E  E  E   Q    E  Q
|----------------------|------------------------|
|---------10-----------|-----------10-----------|
|---9h10-(10)---9h10p9-|-(9)-9h10-(10)---9h10S==|
|----------------------|------------------------|
|----------------------|------------------------|
|----------------------|------------------------|
    Q     E  E +E   E  E  E    Q     E  E +E   E  E  E
||--0-----x--3-(3)--0--x--x-|--0-----x--3-(3)--0--x--x-|
||o-1-----x--1-(1)--1--x--x-|--1-----x--1-(1)--1--x--x-|
||--2-----x--2-(2)--2--x--x-|--0-----x--0-(0)--0--x--x-|
||--2-----x--2-(2)--2--x--x-|--2-----x--2-(2)--2--x--x-|
||o-0-----x--0-(0)--0--x--x-|--3-----x--3-(3)--3--x--x-|
||--------------------------|--------------------------|
|
|   E  E  E  E  E   E  E  E    E  E  E  E  E   E  E  E
||--------------------------|--------------------------|
||o------17----17-----17----|-17----17----17-----17----|
||----17----17-----17----17-|----17----17-----17----17-|
||--------------------------|--------------------------|
||o-------------------------|--------------------------|
||--------------------------|--------------------------|
  Q    E   E   E  E  E E    E  E  E   E   E  E  E E
|-0----x---0--(0)-0--x-0-|-(0)-0--x---0--(0)-0--x-x---||
|-1----x---1--(1)-1--x-1-|-(1)-1--x---1--(1)-1--x-x--o||
|-2----x---0h==2--2--x-0h|==2--2--x---0h==2--2--x-x---||
|-3----x---3--(3)-3--x-3-|-(3)-3--x---3--(3)-3--x-x---||
|-0----x---3--(3)-3--x-3-|-(3)-3--x---3--(3)-3--x-x--o||
|------------------------|----------------------------||
|
| E E  E   Q      E  E E   +E  E  E   Q      E  Q
|------------------------|----------------------------||
|---------10-------------|-----------10--------------o||
|---9h10-(10)-----9h10p9-|-(9)-9h10-(10)-----9h10-----||
|------------------------|----------------------------||
|------------------------|---------------------------o||
|------------------------|----------------------------||
    Q  E E +E  E E E   Q  E E +E  E E E
||--0--x-0-(0)-0-x-x-|-0--x-0-(0)-0-x-x-|
||o-1--x-1-(1)-1-x-x-|-1--x-1-(1)-1-x-x-|
||--2--x-2-(2)-2-x-x-|-0--x-0-(0)-0-x-x-|
||--2--x-2-(2)-2-x-x-|-2--x-2-(2)-2-x-x-|
||o-0--x-0-(0)-0-x-x-|-3--x-3-(3)-3-x-x-|
||-------------------|------------------|
  1.
  Q  E E +E  E E E   +E  E E E +E  E E E
|-0--x-0-(0)-0-x-0-|-(0)-0-x-0-(0)-0-x-x---||
|-1--x-1-(1)-1-x-1-|-(1)-1-x-1-(1)-1-x-x--o||
|-2--x-2-(2)-2-x-2-|-(2)-2-x-2-(2)-2-x-x---||
|-3--x-3-(3)-3-x-3-|-(3)-3-x-3-(3)-3-x-x---||
|-3--x-3-(3)-3-x-3-|-(3)-3-x-3-(3)-3-x-x--o||
|------------------|-----------------------||
  2.
  Q  E E H
|-0--x-0-0-----||
|-1--x-1-1----o||
|-2--x-2-2-----||
|-3--x-3-3-----||
|-3--x-3-3----o||
|--------------||
Duration Legend
---------------
W - whole; H - half; Q - quarter; E - 8th; S - 16th; T - 32nd; X -
64th; a - acciaccatura
+ - note tied to previous; . - note dotted; .. - note double dotted
Uncapitalized letters represent notes that are staccato (1/2 duration)
Irregular groupings are notated above the duration line
Duration letters will always appear directly above the note/fret
number it represents the
duration for.  Duration letters with no fret number below them
represent rests.  Multi-
bar rests are notated in the form Wxn, where n is the number of bars
to rest for.  Low
melody durations appear below the staff

Tablature Legend
----------------
 h   - hammer-on
 p   - pull-off
 b   - bend
 pb  - pre-bend
 r   - bend release (if no number after the r, then release
immediately)
 /\  - slide into or out of (from/to "nowhere")
 s   - legato slide
 S   - shift slide
  - natural harmonic
[n]  - artificial harmonic
n(n) - tapped harmonic
 ~   - vibrato
 tr  - trill
 T   - tap
 TP  - trem. picking
 PM  - palm muting
\n/  - tremolo bar dip; n = amount to dip
 \n  - tremolo bar down
 n/  - tremolo bar up
/n\  - tremolo bar inverted dip
 =   - hold bend; also acts as connecting device for hammers/pulls
   - volume swell (louder/softer)
 x   - on rhythm slash represents muted slash
 o   - on rhythm slash represents single note slash

Misc Legend
-----------
 |  - bar
||  - double bar
||o - repeat start
o|| - repeat end
*|  - double bar (ending)
 :  - bar (freetime)
 $  - Segno
 &  - Coda
Tempo markers -  = BPM(8/16=s8/s16), where s8 = swing 8ths, s16 =
swing 16ths
    
        

      
"Dont Panic"
"Dont Panic"
"Coldplay" "Dont Panic" "39380752"
      
     
     Coldplay - Dont Panic TabDont Panic      People who played
Coldplay - Dont Panic Tab also played these songs by 
      Coldplay:
      Yellow Acoustic Chords, Viva La Vida Chords, The Scientist
Acoustic Chords, Clocks Chords, See You Soon Chords, Violet Hill
Chords, Lovers In Japan Chords, The Scientist Chords, Fix You Chords,
Trouble Acoustic Chords, Green Eyes Chords  
  
  
  
   
   
     
    About the artist behind Dont Panic Tab:   
    
     Coldplay are an English alternative rock band formed in London in
1997. The group comprises vocalist/pianist/guitarist Chris Martin,
lead guitarist Jonny Buckland, bassist Guy Berryman, and
drummer/multi-instrumentalist Will Champion. Coldplay has been one of
the most commercially successful bands of the new millennium, selling
over 30 million albums. The band is also known for its hit singles,
such as "Yellow", "Speed of Sound", the Grammy Award-winning "Clocks"
and their latest single, "Viva La Vida".Coldplay achieved worldwide
fame with the release of their single "Yellow", followed by the
success of their debut album, Parachutes (2000), which was nominated
for the Mercury Prize. Both Parachutes and its follow-up, A Rush of
Blood to the Head (2002), were released to commercial success; the
latter was named NME's Album of the Year. X&Y (2005) received a
generally positive reception. From December 2006, the band worked with
producer Brian Eno on their fourth studio album, Viva la Vida or Death
and All His Friends, which was released on 12 June 2008.Coldplay's
early material was compared to acts such as Jeff Buckley,[1] U2, and
Travis.[2] Since the release of Parachutes, Coldplay have drawn
influence from other sources, including Echo and the Bunnymen[1] and
George Harrison[3] on A Rush of Blood to the Head and Johnny Cash and
Kraftwerk for X&Y.[4] Coldplay have been an active supporter of
various social and political causes, such as Oxfam's Make Trade Fair
campaign and Amnesty International. The group has also performed at
various charity projects such as Band Aid 20, Live 8, and the Teenage
Cancer Trust.[5]Indexed at Wikipedia.      
Dont Panic Tab!
     
Dont Panic Tab, 


   Current rating: 0
   
   Rate: 
   1 
   2 
   3 
   4 
   5
  
  
  
    
  
  
  
   

   

  
  
    
    
  
  
 
 
     
      
     
     
 
 
  
  
   The chord pattern is shown here.   
  
  
  
 
 
 
 


  

 


 c4: "http://www.yourchords.com/193685/Coldplay/Dont-Panic-ver-8-Tab/"
The Best Equipment Deals | Best Music Deals
Midi Mime Types SiteMap Contact Subscribe © 2014 JimmyLandStudios