Crush My Battle Opponents Balls Tab (ver 2) - Dethklok

"Crush My Battle Opponents Balls"
"Dethklok"
"39380751";

     
"Crush My Battle Opponents Balls"
"Crush My Battle Opponents Balls"
 Dethklok - Crush My Battle Opponents Balls (ver 2) Guitar Tab
    Crush My Battle Opponents Balls Tab
    
       
    Crush My Battle Opponent's Balls - Dethklok

C Tuning: C,F,A#,D#,G,C

Key:

h = hammer on

p = pull off

t = tap

| = begin/end lick

opening lick:

|----------------------------------------------------------------------------------------------|
|--12h13h17----12h13h17----12h13h17----12h13h15----12h13h17----12h13h15----12h13h17----12h13h15|
|14----------14----------14----------14----------14----------14----------14----------14--------|
|----------------------------------------------------------------------------------------------|
|----------------------------------------------------------------------------------------------|
|----------------------------------------------------------------------------------------------|
x4

sweep taps:

|t17p12p8-----8h12t17p12p8-----8h12t17p12p8--t17p15p12------12h15t17p15p12-----|
|--------10-10------------10-10-----------------------13--13--------------13---|
|----------9----------------9---------------------------12------------------12-|
|------------------------------------------------------------------------------|
|------------------------------------------------------------------------------|
|------------------------------------------------------------------------------|
--12h15t17p15p12--t15p10p7---7h10t15p10p7---7h10t15p10p7--t15p10p7---7h10t15p10-|
13------------------------8-8------------8-8----------------------8-8-----------|
---------------------------7--------------7------------------------7------------|
--------------------------------------------------------------------------------|
--------------------------------------------------------------------------------|
--------------------------------------------------------------------------------|
p7---7h10t15p10p7--t20p17p13------13h17t20p17p13------13h17t20p17p13--t20p15-|
--8-8-----------------------15--15--------------15--15-----------------------|
---7--------------------------14------------------14-------------------------|
-----------------------------------------------------------------------------|
-----------------------------------------------------------------------------|
-----------------------------------------------------------------------------|
p12------12h15t20p15p12------12h15t20p15p12--t17p12p8-----8h12t17p12p8-----8-|
---13--13--------------13--13------------------------10-10------------10-10--|
-----12------------------12----------------------------9----------------9----|
-----------------------------------------------------------------------------|
-----------------------------------------------------------------------------|
-----------------------------------------------------------------------------|
h12t17p12p8--t17p12p8-----8h12t17p12p8-----8h12t17p12p8|
---------------------10-10------------10-10------------|
-----------------------9----------------9--------------|
-------------------------------------------------------|
-------------------------------------------------------|
-------------------------------------------------------|
two string sweep lick #1:

|--------------------------------------------------------------|
|---5h8-----5h8-----5h8-----5h7-----5h8-----5h7-----5h8-----5h7|
|5h7-----5h7-----5h7-----5h7-----5h7-----5h7-----5h7-----5h7---|
|--------------------------------------------------------------|
|--------------------------------------------------------------|
|--------------------------------------------------------------|
x2
two string sweep lick #2:

|--------------------------------------------------------------------|
|---7h10-----7h10-----7h10-----7h9-----7h10-----7h9-----7h10-----7h10|
|7h9------7h9------7h9------7h9-----7h9------7h9-----7h9------7h9----|
|--------------------------------------------------------------------|
|--------------------------------------------------------------------|
|--------------------------------------------------------------------|
x2
final sweep lick:
|--------------------------------------------------8h12----8h12----8h12----8h12-|
|-----10h13-------10h13-------10h13-------10h13---8-------8-------8-------8-----|
|10h12-------10h12-------10h12-------10h12-------9-------9-------9-------9------|
|-------------------------------------------------------------------------------|
|-------------------------------------------------------------------------------|
|-------------------------------------------------------------------------------|
----10h14------10h14------10h14------10h14-----8h12-----8h12-----8h12-----8h12|
--10---------10---------10---------10--------10-------10-------10-------10----|
11---------11---------11---------11---------9--------9--------9--------9------|
------------------------------------------------------------------------------|
------------------------------------------------------------------------------|
------------------------------------------------------------------------------|
x2
ending notes:

|20----------22--20--19--20|
|--------------------------|
|--------------------------|
|--------------------------|
|--------------------------|
|--------------------------|
x2

machine gun pick 0 on F string until song fades
    
        

      
"Crush My Battle Opponents Balls"
"Crush My Battle Opponents Balls"
"Dethklok" "Crush My Battle Opponents Balls" "39380752"
      
     
     Dethklok - Crush My Battle Opponents Balls TabCrush My Battle
Opponents Balls      People who played Dethklok - Crush My Battle
Opponents Balls Tab also played these songs by 
      Dethklok:
      Awaken Mustakrakish Tab, Murmaider Tab, Titty Fish Acoustic
Chords, Black Fire Upon Us Tab, Go Into The Water Tab, Fan Song Tab,
Bloodlines Tab, Thunderhorse Tab, Hatredy Tab, Kill You Tab, I Tamper
With The Evidence At The Murder Site Of Odin Tab  
  
  
  
   
   
     
    About the artist behind Crush My Battle Opponents Balls Tab:   
    
     Dethklok is a virtual death metal[1] band created by Brendon
Small and Tommy Blacha for the television show Metalocalypse. The band
is sometimes cited as an example of "comedy rock" on par with bands
such as GWAR or Spinal Tap, though the overtly comedic aspects of the
band are usually reserved for show episodes. Dethklok released their
first album in 2007, and the music itself is relatively
straightforward extreme metal. The band's less common typeset moniker,
Dëthkløk, includes the heavy metal umlaut.Dethklok's debut album,
released September 25, 2007, was entitled The Dethalbum. Creator
Brendon Small wrote the lyrics and music and also performed the
guitar, bass, and vocals (as he also does in the series); former
Death/Dark Angel/Devin Townsend/Strapping Young Lad drummer Gene
Hoglan performed drums on the album.[2] The album debuted at #21 on
the Billboard Top 200 list, making it the highest charting death metal
album ever.[3]Indexed at Wikipedia.      
Crush My Battle Opponents Balls Tab!
     
Crush My Battle Opponents Balls Tab, 


   Current rating: 0
   
   Rate: 
   1 
   2 
   3 
   4 
   5
  
  
  
    
    
  
  
 
 
     
      
     
     
 
 
  
  
   The chord pattern is shown here.   
  
  
  
 
 
 
 


  

 


 c4:
"http://www.yourchords.com/178223/Dethklok/Crush-My-Battle-Opponents-Balls-ver-2-Tab/"
The Best Equipment Deals | Best Music Deals
Midi Mime Types SiteMap Contact Subscribe © 2014 JimmyLandStudios