Hello Tab (ver 2) - Evanescence

"Hello"
"Evanescence"
"39380751";

     
"Hello"
"Hello"
 Evanescence - Hello (ver 2) Guitar Tab
    Hello Tab
    
       
    This is my first tab, so if it's weird in any way, please feel
free to make
corrections. I think it turned out pretty well. There's no specific
timing to
the tablature, I just kinda typed it out. Just listen to the song to
see how
the finger picking goes. :)
 [[-RIFF 1]] played 3x for first two repeats, on third repeat only
play 2x
(Bm:)
E-------------------------------|-------------------------------
B-------3---3----2---2---------2|------3---3----2---2----------2
G-----------------------2---2---|----------------------2---2----      
  
D-----4---4--------4------------|----4---4----------------------
A---2---------------------------|--2---------------------------- 
E-------------------------------|-------------------------------

(A:)
E--------------------------------
B------------2---------0---------
G--------2--------------------2--
D-----2----2---2-----2------2----
A--0-----------------------------
E--------------------------------

(F#m:)
E--------------------------------
B--------------2------3-2-2-----2
G-----------------2--------4-2---
D---------4----------------------
A------4----4---4---4------------
E---2----------------------------

[[-RIFF 2:]]
E----------------------------------------
B---0-------0---------2-------3----------
G-------0--------------------------------
D----------------------------------------
A----------------------------------------
E-----3---3----3----3-------3------------
E----------------------------------------
B---2-----------------0-------2----------
G-----------3----------------------------
D----------------------------------------
A-------4--------------------------------
E-----2---2-----2--2------2-2-----2-2----
E--------------------------------------2--|
B---3-----0-----0h2--3-----2-----0--------|
G-----------------------------------------|
D------4-----4----------4-----4-----4-----|
A---2----------------------2--------------|
E-----------------------------------------|

E--------------------------------------2-
B---3-----0-----0h2--3-----2-----0-------
G----------------------------------------
D------4-----4----------4-----4-----4----
A---0----------------------0-------------
E----------------------------------------

E----------------------------------------
B---0-------0---------2-------3----------
G-------0--------------------------------
D----------------------------------------
A----------------------------------------
E-----3---3--------3--------3------------

E----------------------------------------
B----------------0------2------3---------
G--------0-------------------------------
D----------------------------------------
A----------------------------------------
E---32--0---0-0-------0------0----------

E----------------------------------------
B-------2-------------0------------------
G--------------------------------3-------
D-------------4-----------4------4-------
A------------------4---------------------
E---0h1/2--------------------------------   repeat Riffs 1&2 2x, then
the outro...

 [[-RIFF 3:]]
E-------------------------------|-------------------------------------
B-------3---3----2---2--------2-|------3---3----2----2------------2---
G----------------------2---2----|-------------------------2---2-------
D-----4---4--------4------------|----4---4----4----4---4----4---4---4-
A---2---------------------------|--2----------------------------------

E-------------------------------|-------------------------------------
E-------------------------------|-------------------------------------
B-------3---3----2---2--------2-|------3---3----2---2---------2-------
G----------------------2---2----|----------------------2---2------4---
D-----4---4--------4-----4------|----4---4----4---4------4--------4---
A---2---------------------------|--2------------------------------2---

E-------------------------------|-------------------------------------
    
        

      
"Hello"
"Hello"
"Evanescence" "Hello" "39380752"
      
     
     Evanescence - Hello TabHello      People who played Evanescence -
Hello Tab also played these songs by 
      Evanescence:
      Bring Me To Life Chords, My Immortal Chords, My Immortal
Acoustic Chords, Bring Me To Life Acoustic Chords, You Chords, Lithium
Chords, Hello Chords, Good Enough Chords, Going Under Chords, October
Chords  
  
  
  
   
   
     
    About the artist behind Hello Tab:   
    
     Evanescence is an American rock band founded in Little Rock,
Arkansas in 1995 by singer/pianist Amy Lee and guitarist Ben
Moody.[2]After recording two private EPs and a demo CD named Origin,
with the help of Bigwig Enterprises in 2000, the band released their
first full-length album, Fallen, on Wind-up Records in 2003. Fallen
sold more than 15 million copies worldwide and helped the band win two
Grammy Awards.[3] A year later, Evanescence released their first live
album, Anywhere but Home, which sold more than one million copies
worldwide. In 2006, the band released their second studio album, The
Open Door, which has sold more than four million copies.The band has
suffered departures, including co-founder Moody in 2003, and guitarist
John LeCompt and drummer Rocky Gray in 2007. Lee is now the only
original member of Evanescence remaining in the band.Indexed at
Wikipedia.      
Hello Tab!
     
Hello Tab, 


   Current rating: 5
   
   Rate: 
   1 
   2 
   3 
   4 
   5
  
  
  
    
    
  
  
 
 
     
      
     
     
 
 
  
  
   The chord pattern is shown here.   
  
  
  
 
 
 
 


  

 


 c4: "http://www.yourchords.com/124392/Evanescence/Hello-ver-2-Tab/"
The Best Equipment Deals | Best Music Deals
Midi Mime Types SiteMap Contact Subscribe © 2014 JimmyLandStudios