I Miss You Tab (ver 2) - Incubus

"I Miss You"
"Incubus"
"39380751";

     
"I Miss You"
"I Miss You"
 Incubus - I Miss You (ver 2) Guitar Tab
    I Miss You Tab
    
       
    Artist: Incubus
Song: I Miss You (acoustic and electric)
Album: Make Yourself

I've seen a bunch of tabs for this song and the chorus is always
incredibly wrong. There are two guitars playing through this song but
I'll tab it out for one guitar. This is straight from the Make
Yourself tab book;I can guarantee it's right. The electric version is
played with a clean tone and chorus and flange effects.

~ means let ring
*7 * indicates natural harmonics

Intro, Main riff

E----------------------------------------------------------
B----------------------------------------------------------
G--------------------------------------------------------- 
D---------0~---------------------0~-----0~---*5*-----
A-----4~-----4~------4~-------4~-----4~----------------
Dó0~-------------0~------5~-------------------------------  

Second time, exclude harmonic on 5 and end on

E----------------
B-----*7*--------
G--*7*---*7*-----
D----------------
A----------------
D----------------   

Chorus

E--------------------------------------------0-0-0-0-----
B--------------------------------------------5-5-5-5-----
G--------0-----------------0-----------------7-7-7-7-----
D-----4----4----4--------5---5---------4~----4-4-4-4-----
A--2----------2--------0--------0------0~----------------
D--------------------5--------------0--0~----------------

E-----------------------------------------------------------
B---------------------------------------------15-15-15-15---
G--------0-----------------0------------------x--x--x--x----
D-----4----4-----4-------5---5---------4~-----12-12-12-12---
A--2----------2--------0--------0------0~-------------------
D--------------------5--------------0--0~-------------------

E-----------------------------------------------------------
B-----------------------------------------------------------
G-------0---------------0----------------4--4-4-4-4-0-0-0-0
D----4----4----4------5---5-------4-4-4--4--4-4-4-4-5-5-5-4
A--2--------2------0--------0-----0-0-0--2--2-2-2-2-5-5-5-5
D----------------5----------------0-0-0--4--4-4-4-4-5-5-5-5

E--------------------------------
B--------------------------------
G-0-0-0-0-0-0-0-0-0--------------
D-4-4-4-5-5-5-4-4-4--------------
A-5-5-5-5-5-5-5-5-5--------------
E-5-5-5-5-5-5-5-5-5--------------


    
        
    Tablature player for this song:
    
     
    
    
        
        
      
"I Miss You"
"I Miss You"
    cf_page_artist = "Incubus" "I Miss You" "39380752"
      
     
     Incubus - I Miss You TabI Miss You      People who played Incubus
- I Miss You Tab also played these songs by 
      Incubus:
      Anna Molly Chords, Drive Chords, I Miss You Chords, Drive
Acoustic Chords, Wish You Were Here Chords, Dig Chords, Love Hurts
Chords, The Warmth Chords, Pendulous Threads Chords  
  
  
  
   
   
     
    About the artist behind I Miss You Tab:   
    
     Incubus is a Grammy-nominated alternative rock band based out of
Calabasas, California. Formed by vocalist Brandon Boyd, lead guitarist
Michael Einziger, and drummer Jose Antonio Pasillas II while in high
school, the band grew to include bassist Alex Katunich (a.k.a. "Dirk
Lance"), and Gavin Koppell (a.k.a. "DJ Lyfe"), both of whom were
eventually replaced by bassist Ben Kenney (formerly of The Roots), and
DJ Kilmore, respectively.They are known for their eclectic sound,
balancing experimental and progressive qualities with pop appeal,
earning praise for their ability to change and evolve their music with
every subsequent release. Their lyrics touch on a number of different
subjects, from their earliest works which touch on drugs and
anti-conformity to the later albums where they often sing about
politics and romance, although they primarily stress an optimistic
view.Incubus has received both high critical acclaim and commercial
success, reaching multi-platinum sales, as well as releasing several
highly successful singles. The band started branching out creatively
and earned mainstream recognition with the release of their 1999 album
Make Yourself. By 2001, Incubus became hugely successful with the
single "Drive" and their follow up album Morning View. Today they
remain one of the world's most popular rock acts, with their latest
studio album, Light Grenades, reaching Gold certification and reaching
#1 in the U.S. Their music has also appeared in other media, such as
the video games Halo 2 and Guitar Hero, and the films Stealth and
Final Destination 2.Indexed at Wikipedia.      
I Miss You Tab!
     
I Miss You Tab, 


   Current rating: 4.1
   
   Rate: 
   1 
   2 
   3 
   4 
   5
  
  
  
    
    
  
  
 
 
     
      
     
     
 
 
  
  
   The chord pattern is shown here.   
  
  
  
 
 
 
 


  

 


 c4: "http://www.yourchords.com/126439/Incubus/I-Miss-You-ver-2-Tab/"
The Best Equipment Deals | Best Music Deals
Midi Mime Types SiteMap Contact Subscribe © 2014 JimmyLandStudios