Wala Nang Pwedeng Magmahal Sayo Tab - Itchyworms

"Wala Nang Pwedeng Magmahal Sayo"
"Itchyworms"
"39380751";

     
"Wala Nang Pwedeng Magmahal Sayo"
"Wala Nang Pwedeng Magmahal Sayo"
 Itchyworms - Wala Nang Pwedeng Magmahal Sayo Guitar Tab
    Wala Nang Pwedeng Magmahal Sayo Tab
    
       
    WALA NANG PWEDENG MAGMAHAL SAYO by The Itchyworms
INTRO:

guitar 1: Am-F-Am-E

guitar 2:

e|------------------------------------|
B|------------------------------------|
G|----------8/10-9-8-9----------------|
D|-7-9-10-7------------7-9-10-9-------|
A|------------------------------8--7--|
E|------------------------------------|

e|------------    --------------|
B|------------ 3x --------------|
G|-5-/7-7-9---    --------------|
D|-7-/9-9-10--    -10/12-10-9-7-|
A|------------    --------------|
E|------------    --------------|
Fill in....

e|---------------|
B|---------------|
G|---------------| 3x
D|---------------|
A|-------8--7----|
E|-55555------8--|
VERSE:

e|---------------    ------------0--|
B|---------------    -----1------0--|
G|--------------- 3x -----2---------|
D|---------------    ---------------|
A|-------8--7----    ---3------2----|
E|-55555------8--    -1------0------|
REFRAIN:

e|---------------    ----|
B|---------------    ----|
G|--------------- 2x ----|
D|-7--7--7--7----    -7--|
A|-7--8--9--8----    -7--|
E|-5--5--5--5----    -5--|

e|------------------------|
B|------------------------|
G|------------------------|
D|------------------------|
A|-------8-7----------8-7-|
E|-55555-----8--55555-----|
CHORUS:
C          G            Am             F
 Nasa'n ka man pag-ibig ko, walang hanggan
C            G    F        G
 Hanggang sa dulo, forever tayo
C          G              Am          F
 Nasa'n ka man, mag-ingat ka ako'y nandyan
C          G      F           G
 wala nang pwedeng magmahal sayo kundi ako
ADLIB:

e|------------    ------------|
B|------------    ------------|
G|-5-/7-7-9--- 3x -10-9--7-5--|
D|-7-/9-9-10--    -12-10-9-7--|
A|------------    ------------|
E|------------    ------------|

e|-8p7-5-7--8p7-5----5h7h8-10-8-7-8-7-5-4-5--|
B|----------------6--------------------------|
G|-------------------------------------------|
D|-------------------------------------------|
A|-------------------------------------------|
E|-------------------------------------------|
BRIDGE:

e|----------------------------------------------------    \
B|----------------------------------------------------     \
G|---------------------------------------------------- 2x   \
D|-7-xx-7-xxxx-8-xx-8-xxxx-10-xx-10-xxxx-8-xx-8-xxxx--       \ 
A|-5-xx-5-xxxx-5-xx-5-xxxx-5--xx-5--xxxx-5-xx-5-xxxx--         2x
E|----------------------------------------------------       /
                                                            /
tapos: Am-F-Am-E                                           /
                                                          /
last CHORUS: D-A-Bm-G-D-A-G-A-;(2x)

etc..
NITRAM
05-29-19
08:24 PM

    
        
    Tablature player for this song:
    
     
    
    
        
        
      
"Wala Nang Pwedeng Magmahal Sayo"
"Wala Nang Pwedeng Magmahal Sayo"
    cf_page_artist = "Itchyworms" "Wala Nang Pwedeng Magmahal Sayo"
"39380752"
      
     
     Itchyworms - Wala Nang Pwedeng Magmahal Sayo TabWala Nang Pwedeng
Magmahal Sayo      People who played Itchyworms - Wala Nang Pwedeng
Magmahal Sayo Tab also played these songs by 
      Itchyworms:
      Loveteam Chords, Beer Chords, Awit Ng Barkada Chords, Love Team
Chords, Akin Ka Na Lang Chords, Happy Birthday Chords, Penge Naman Ako
Nyan Chords, Kabataang Pinoy Chords, Gusto Ko Lamang Sa Buhay Chords  
  
  
  
   
   
     
    About the artist behind Wala Nang Pwedeng Magmahal Sayo Tab:   
    
     The itchyworms is a Filipino rock band whose music is primarily
guitar-driven rock with pronounced 1960s and 1980s pop sensibilities
and embellished with two- or three-part vocal harmonies. The group
made their name in the OPM (Original Pilipino Music) scene in 2006
with their sophomore effort Noontime Show with songs such as "Akin Ka
Na Lang" and "Beer".Indexed at Wikipedia.      
Wala Nang Pwedeng Magmahal Sayo Tab!
     
Wala Nang Pwedeng Magmahal Sayo Tab, 


   Current rating: 0
   
   Rate: 
   1 
   2 
   3 
   4 
   5
  
  
  
    
  
  
  
   

   

  
  
    
    
  
  
 
 
     
      
     
     
 
 
  
  
   The chord pattern is shown here.   
  
  
  
 
 
 
 


  

 


 c4:
"http://www.yourchords.com/250035/Itchyworms/Wala-Nang-Pwedeng-Magmahal-Sayo-Tab/"
The Best Equipment Deals | Best Music Deals
Midi Mime Types SiteMap Contact Subscribe © 2014 JimmyLandStudios