Whos Crying Now Chords (ver 2) - Journey
   
  
   Back | 
   
   Video and audio performances by our users 
"Whos Crying Now"
"Journey"
"39380751";

     
"Whos Crying Now"
"Whos Crying Now"
 Journey - Whos Crying Now (ver 2) Guitar Tab
    Whos Crying Now Chords
    
       
    Right, this is an easy one :) I HAVE TWO OF THIS TAB SOMEHOW LOL

I tabbed this out before, but spelled the name wrong lol...

Intro:

Am, F, Dm, Em, Am    (this is the pattern rtepeated through the
verses)

Verse:
Am                 F                           Dm
  It's been a mystery and still they try to see
              Em               Am
Why somethin' good can hurt so bad
Am                           F                         Dm
  Caught on a one-way street, the taste of bittersweet
            Em                  Am
Love will survive somehow, some way
chorus:

Am
One love feeds the fire
F
One heart burns desire
Dm         G           Am
I wonder, who's cryin' now
e|---------------------------|
B|--------8------------------| Play this wherever you hear it
G|----5h7---5~~~-------------| its not hard to hear lol.
D|---------------------------|
A|---------------------------|
E|---------------------------|

Am
Two hearts born to run
F
Who'll be the lonely one
Dm         G           Am
I wonder, who's cryin' now
Am                      F                         Dm
  So many stormy nights, so many wrongs or rights
                Em                    Am
Neither could change their headstrong ways
Am                      F                       Dm
  And in a lover's rage, they tore another page
                Em                   Am
The fightin' is worth the love they save...

Am
One love feeds the fire
F
One heart burns desire
Dm         G           Am
I wonder, who's cryin' now
Am
Two hearts born to run
F
Who'll be the lonely one
Dm         G           Am
I wonder, who's cryin' now
(not sure wats here, i think its just keyboards)

Only so many tears you can cry
'Til the heartache is over
And now you can say your love
           Am     F    Dm    Em    Am
Will never die
Am
One love feeds the fire
F
One heart burns desire
Dm         G           Am
I wonder, who's cryin' now
Am
Two hearts born to run
F
Who'll be the lonely one
D          G           Am
I wonder, who's cryin' now

EPIC SOLO!! - i split it into parts, listen out!

Part A

e|--------15----15----15----15-----------15----15----15----15---|
B|--15b17----15----13----12--------15b17----15----13----12------|
G|--------------------------------------------------------------|
D|--------------------------------------------------------------|
A|--------------------------------------------------------------|
E|--------------------------------------------------------------|

e|--------15----15----15-----------------|
B|--15b17----15----13----12----12~~~~----|
G|--------------------------14-----------|
D|---------------------------------------|
A|---------------------------------------|
E|---------------------------------------|

Part B

e|--------15----15-----15b17-----------15----15----15b17---|
B|--15b17----15----13------------15b17----15----13---------|
G|---------------------------------------------------------|
D|---------------------------------------------------------|
A|---------------------------------------------------------|
E|---------------------------------------------------------|

e|--------15----15----15-----------------|
B|--15b17----15----13----12----12~~~-----|
G|--------------------------14-----------|
D|---------------------------------------|
A|---------------------------------------|
E|---------------------------------------|
Part C 

e|-----------------------------------------------------|
B|-----------------------------------------------------| 
G|--12h14-14~~
D|----------------------12
A|---------------------------------------12~-----------|
E|-----------------------------------------------------|

e|-------------------------------------------17---17b19--20*-|
B|-----------------------------15b17-------17--17------------|
G|------12h14-14~-12----12>>14-------17-14-------------------|
D|->>14--------------14--------------------------------------|
A|-----------------------------------------------------------|
E|-----------------------------------------------------------|

e|--15h17-17--15h17b19r-17p15-17b19r17-p15-------|
B|------------------------------------------17~--|
G|-----------------------------------------------|
D|-----------------------------------------------|
A|-----------------------------------------------|
E|-----------------------------------------------|

e|--15h17-17--15h17b20--17p15h17-----------------|
B|-------------------------------17-17~~~
G|-----------------------------------------------|
D|-----------------------------------------------|
A|-----------------------------------------------|
E|-----------------------------------------------|

Part E
                   (fast)
e|------------------------------------------|
B|---15--17b18r17--13h15--------------------|
G|------------------------------------------| 
D|------------------------------------------|
A|------------------------------------------|
E|------------------------------------------|

e|-12------------------------------------------------------| You've
REALLY
B|----15p13p12-13p12----12----13p12------------------------| gotta
listen 
G|-------------------14----14------14---12-12h14-----------| close for
this
D|-----------------------------------------------14~~------| part!!!!!
A|---------------------------------------------------------|
E|---------------------------------------------------------|

ENDING

e|--------15----15----15----15---------15----15----15b17r15--p13--|
B|--15b17----15----13----12------15b17----15----13----------------|
G|----------------------------------------------------------------|
D|----------------------------------------------------------------|
A|----------------------------------------------------------------|
E|----------------------------------------------------------------|

and reapeat part A

Any questions or u dont understand it, just message :P lol
Enjoy.

\m/ Rock On!!
    
        

      
"Whos Crying Now"
"Whos Crying Now"
"Journey" "Whos Crying Now" "39380752"
      
     
     Journey - Whos Crying Now ChordsWhos Crying Now      People who
played Journey - Whos Crying Now Chords also played these songs by 
      Journey:
      Dont Stop Believing Chords, Faithfully Chords, Open Arms Chords,
After All These Years Chords, Oh Sherrie Chords, Separate Ways Chords,
Any Way You Want It Chords, Wheel In The Sky Chords, Dont Stop
Believin Chords  
  
  
  
   
   
     
    About the artist behind Whos Crying Now Chords:   
    
     Journey is an American rock band formed in San Francisco,
California in 1973.The band has gone through several phases since its
inception by former members of Santana. The band's greatest commercial
success came in the late 1970s through the early 1980s with a series
of power ballads and songs such as "Don't Stop Believing", "Any Way
You Want It", "Faithfully", "Open Arms", "Separate Ways", and "Wheel
in the Sky."Journey has been eligible for induction into the Rock
& Roll Hall of Fame since 2000, but Gregg Rolie is currently the
only member of Journey who has been inducted--as a member of parent
band Santana. In 2009, Steve Perry, the band's best-known lead
vocalist, will be eligible for induction as a solo artist.Indexed at
Wikipedia.      
Whos Crying Now Whos Crying Now Chords, 


   Current rating: 0
   
   Rate: 
   1 
   2 
   3 
   4 
   5
  
  
  
    
  
  
  
   

   

  
  
    
    
  
  
 
 
     
      
     
     
 
 
  
  
   The chord pattern is shown here.   
  
  
  
 
 
 
 


  

 


 c4:
"http://www.yourchords.com/198645/Journey/Whos-Crying-Now-ver-2-Chords/"
The Best Equipment Deals | Best Music Deals
Midi Mime Types SiteMap Contact Subscribe © 2014 JimmyLandStudios