Guitar Tablature

       Diatonic scale on C, guitar tablature
       
	 File: 82  Score: 5  against: +When +You Were Young Tab - Killers Guitar Chords
       
  When You Were Young Tab - Killers
   
  
   Back | 
   
   Video and audio performances by our users 
"When You Were Young"
"Killers"
"39380751";

     
"When You Were Young"
"When You Were Young"
 Killers - When You Were Young Guitar Tab
    When You Were Young Tab
    
       
         When You Were Young - The Killers
-------------------------------------------------------------------------------
Tabbed by:Cud
Great Single Off of Sam's Town!

Tuning:All Half Step Down
intro, verse, chorus
e|--10---------------------------------------------------------------------------|
B|--12---------------------------------------------------------------------------|
G|--12-----5------7------9------12------5----------------------------------------|
D|--12-----5--x8--7--x4--9--x4--12--x8--5--x8------------------------------------|
A|--10-----3------5------7------10------3----------------------------------------|
E|-------------------------------------------------------------------------------|

e|-----------5--3-----------------5--3---------------------------------------|
B|-----------------0---------------------------------------------------------|
G|----0h2---------------0h2-------------2------------------------------------|
D|---------------------------------------------------------------------------|
A|---------------------------------------------------------------------------|
E|---------------------------------------------------------------------------|
solo
e|-----12-12-12-12-12-12-12-12-12-12-12-12-12-12-----------------------------|
B|------------------------------------------------8-8-8-10-10-10-10----------|
G|---------------------------------------------------------------------------|
D|---------------------------------------------------------------------------|
A|---------------------------------------------------------------------------|
E|---------------------------------------------------------------------------|

e|-------------17--15--------12--------------------17--15-------|
B|-----8h10-------------12--------13-----8h10---------------10--|
G|--------------------------------------------------------------|
D|--------------------------------------------------------------|
A|--------------------------------------------------------------|
E|--------------------------------------------------------------|

e|-------------------------------------------------------------------------------|
B|-------------------------------------------------------------------------------|
G|----12----9--------------------------------------------------------------------|
D|----12-x3-9-x3-12----10-----10-9-7-5-------------------------------------------|
A|----10----7----12-x3-10-x3--10-9-7-5-------------------------------------------|
E|---------------10-----8------8-7-5-3-------------------------------------------|
Bridge In Chords
             Dminor                             F                     
  G
They Say The Devil's Water It Aint So Sweet You Dont Have To Drink
Right Now

Eminor                  F     G
   But You Can Dip Your Feet, Every Once In A Little While
Outro
Repeat Verse

Outro Solo
e|-----12-12-12-12-12-12-12-12-12-12--------15-15-15-15-15-15-15-15-15-15--------|
B|------------------------------------8-10---------------------------------8-10--|
G|-------------------------------------------------------------------------------|
D|-------------------------------------------------------------------------------|
A|-------------------------------------------------------------------------------|
E|-------------------------------------------------------------------------------|
Do That Then Repeat Regular Solo Four Times

===============================================================================
    
        

      
"When You Were Young"
"When You Were Young"
"Killers" "When You Were Young" "39380752"
      
     
     Killers - When You Were Young TabWhen You Were Young      People
who played Killers - When You Were Young Tab also played these songs
by 
      Killers:
      Mr Brightside Chords, When You Were Young Chords, Human Chords,
When You Were Young Acoustic Chords, Somebody Told Me Chords, Mr
Brightside Acoustic Chords, Human Acoustic Chords, All These Things
That Ive Done Chords, Smile Like You Mean It Chords, Dont Shoot Me
Santa Tab  
  
  
  
   
   
     
    About the artist behind When You Were Young Tab:   
    
     The Killers are an American rock band from Las Vegas, Nevada who
have combined music styles from the 1980s and 1990s with modern
synthetic music. Formed in 2002 and made up of Brandon Flowers
(vocals, keyboards), Dave Keuning (guitar, vocals), Mark Stoermer
(bass guitar, vocals) and Ronnie Vannucci Jr., (percussion, drums),
they released their debut album, Hot Fuss, in 2004. Their second
album, Sam's Town, was released in 2006. The compilation album
Sawdust, containing B-sides, rarities, and some new material, was
released in 2007. Their first two albums to date have sold in excess
of 12 million copies worldwide combined.Indexed at Wikipedia.      
When You Were Young Tab!
     
When You Were Young Tab, 


   Current rating: 0
   
   Rate: 
   1 
   2 
   3 
   4 
   5
  
  
  
    
  
  
  
   

   

  
  
    
    
  
  
 
 
     
      
     
     
 
 
  
  
   The chord pattern is shown here.   
  
  
  
 
 
 
 


  

 


 c4:
"http://www.yourchords.com/181968/Killers/When-You-Were-Young-Tab/"
The Best Equipment Deals | Best Music Deals
Midi Mime Types SiteMap Contact Subscribe © 2014 JimmyLandStudios