Pirates Of The Carribean Theme Tab - Misc Soundtrack

"Pirates Of The Carribean Theme"
"Misc Soundtrack"
"39380751";

     
"Pirates Of The Carribean Theme"
"Pirates Of The Carribean Theme"
 Misc Soundtrack - Pirates Of The Carribean Theme Guitar Tab
    Pirates Of The Carribean Theme Tab
    
       
    Pirates of the Carribean by Rocky P.

Legend:
h- hammer-on          x (n) - obviously the number of times you're
going to play the part
p- pull-off           b-bend
~- vibrato
/- slide down

Intro                               First Part
e----------------------------------|-------------------------------|
x2
b----------------------------------|----------5-6-6-6-8-5-5--------|
g--------------------------------3-|---5-7-7-7-------------7-5-7b--|
d----------------------------------|--7----------------------------|
a----------------------------------|-------------------------------|
e5-5-5-5-5-5-5-5-5-5-5-5-5-5-5-5-5-|-------------------------------|

Second Part
e------------------5-6-6-5---5--------------5----------------------|
b-----------5-8-8-8--------8---------5-6-6-8------5-6-5-5----------|
g----5-7-7-7-------------------7---7----------7------------7-5-7---|
d--7---------------------------------------------------------------|
a------------------------------------------------------------------|
e------------------------------------------------------------------|

e--------------5/1-1---------------|--------------------------------|
b----5-6-6-8--------3----11--------|-10-10-10-10-h11----------------|
g--7-----------------2-----10------|-10-10-10-10-10-----------------|
d----------------------------12-11~|--------------------------------|
a----------------------------------|--------------------------------|
e----------------------------------|--------------------------------|
e------------------------------------------|-------------------------|
b--8-8-8-8h10----10-10-10h11----8--6--5--6-|-------------10----------|
g--9-9-9-9-9-----10-10-10-10----9--7--5--7-|-----9-10-10-----12-10-9-|
d------------------------------------------|--12---------------------|
a------------------------------------------|-------------------------|
e------------------------------------------|-------------------------|

e----------------------------------------------|-------------------|
b-------10-------------10--8--10-8-------------|-----------10------|
g-10-12----12--10--12--------------10-9-7-9-5-7|7--9-10-12----12---|
d----------------------------------------------|-------------------|
a----------------------------------------------|-------------------|
e----------------------------------------------|-------------------|

e------------------------------------------------------------------|
b-------10------------------------10-11----------------------------|
g-10-12----12--10---------9-10-12----------12-10-12-9-7-9-5~-------|
d------------------12--12---------------12-------------------------|
a------------------------------------------------------------------|
e------------------------------------------------------------------|
Ending [use the index and middle fingers for the dual notes but use
the ring finger for hammer-ons]
e------------------------------------------------------------------|
x3
b--10~-11--10-10-10-10/8--8--6-5-6-5---3--------------------------|
g--10~-10-10-10-10-10/9--9--7--5-5-5---2--------------------------|
d------------------------------------------------------------------|
a------------------------------------------------------------------|
e------------------------------------------------------------------|
*[index finger for the bottom notes and middle finger for the notes on
the top, except 
the two last dual notes:5,5 & 3,2]
    
        

      
"Pirates Of The Carribean Theme"
"Pirates Of The Carribean Theme"
"Misc Soundtrack" "Pirates Of The Carribean Theme" "39380752"
      
     
     Misc Soundtrack - Pirates Of The Carribean Theme TabPirates Of
The Carribean Theme      People who played Misc Soundtrack - Pirates
Of The Carribean Theme Tab also played these songs by 
      Misc Soundtrack:
      Sons Of Anarchy Theme Chords, Mamma Mia - Our Last Summer
Chords, Pirates Of The Caribbean - Hes A Pirate Tab, Pirates Of The
Caribbean Theme Tab, Twilight - Bellas Lullaby Tab, Pirates Of The
Caribbean Main Theme Tab, Winter Sonata Theme Tab, Malaguena Salerosa
Theme Tab, Gladiator - Honor Him Tab, Twin Peaks Theme Tab  
  
  
  
   
   
     
    Quick tip, so you can enjoy Pirates Of The Carribean Theme Tab
even more:   
    
     If you don't really know how to deal with "Absus4" chord and his
equally confusing brothers, just put the mouse cursor 
       over them and you will be shown a helpful chord diagram.      
Pirates Of The Carribean Theme Tab!
     
Pirates Of The Carribean Theme Tab, 


   Current rating: 0
   
   Rate: 
   1 
   2 
   3 
   4 
   5
  
  
  
    
    
  
  
 
 
     
      
     
     
 
 
  
  
   The chord pattern is shown here.   
  
  
  
 
 
 
 


  

 


 c4:
"http://www.yourchords.com/183512/Misc-Soundtrack/Pirates-Of-The-Carribean-Theme-Tab/"
The Best Equipment Deals | Best Music Deals
Midi Mime Types SiteMap Contact Subscribe © 2014 JimmyLandStudios