Guitar Tablature

       Diatonic scale on C, guitar tablature
       
	 File: 82  Score: 5  against: +Take +Me Out To The Ball Game Tab - Misc Traditional Guitar Chords
       
  Take Me Out To The Ball Game Tab - Misc Traditional

"Take Me Out To The Ball Game"
"Misc Traditional"
"39380751";

     
"Take Me Out To The Ball Game"
"Take Me Out To The Ball Game"
 Misc Traditional - Take Me Out To The Ball Game Guitar Tab
    Take Me Out To The Ball Game Tab
    
       
    I don't know who the original composer is but I transcribed this
myself by ear.  It's
or I wouldn't put it on here.  Rate it well.
TAKE ME OUT TO THE BALL GAME
e-----8-5---------------8-5--------|
B---------8-5-8-------------8-5-8--|
G--5-------------7---5-------------|
D----------------------------------|
A----------------------------------|
E----------------------------------|
e-------------------------------------7-8-10-7-----------|
B-10-10-10-5-6-8-10-6-----10-10-10-10----------10-8-5----|
G---------------------7-------------------------------7--|
D--------------------------------------------------------|
A--------------------------------------------------------|
E--------------------------------------------------------|
e---8-5-----------------------------7-8--8--8-7----------------------|
B-------8-5-8---------5-6-8-10---10-------------10-8-5h6h8-10-12-13--|
G-5-----------7---5-7------------------------------------------------|
D--------------------------------------------------------------------|
A--------------------------------------------------------------------|
E--------------------------------------------------------------------|

Bon Mosman - godof6strings@hotmail.com
Lyrics
Take me out to the ball game
Take me out with the crowd
Buy me some peanuts and cracker-jacks
I don't care if I ever get back
Well it's root, root, root for the home team
If they don't win it's a shame
Now it's 1,  2,   3 strikes - you're out
At the old ball game     PLAY BALL!!
    
        

      
"Take Me Out To The Ball Game"
"Take Me Out To The Ball Game"
"Misc Traditional" "Take Me Out To The Ball Game" "39380752"
      
     
     Misc Traditional - Take Me Out To The Ball Game TabTake Me Out To
The Ball Game      People who played Misc Traditional - Take Me Out To
The Ball Game Tab also played these songs by 
      Misc Traditional:
      Auld Lang Syne Chords, Down In The Valley Birmingham Jail
Chords, Happy Birthday Chords, Star Spangled Banner Tab, Hole In The
Bucket Chords, Bahay Kubo Chords, Waltzing Matilda Chords, La Bamba
Tab, Karjalan Kunnailla Chords, Highland Cathedral Tab  
  
  
  
   
   
     
    Quick tip, so you can enjoy Take Me Out To The Ball Game Tab even
more:   
    
     If you spend just 10 seconds to register, you will be able to
comment on all the chords and tabs and rate them. 
       You will as well be able to comment on videos of your fellow
guitarists and give them ratings from 1 to 5 ... And - of course - 
       you can share your own videos with them and see what they think
of you. :)
       Click here to join us!      
Take Me Out To The Ball Game Tab!
     
Take Me Out To The Ball Game Tab, 


   Current rating: 0
   
   Rate: 
   1 
   2 
   3 
   4 
   5
  
  
  
    
    
  
  
 
  
 
 
  
  
   The chord pattern is shown here.   
  
  
  
 
 
 
 


  

 


 c4:
"http://www.yourchords.com/201425/Misc-Traditional/Take-Me-Out-To-The-Ball-Game-Tab/"
The Best Equipment Deals | Best Music Deals
Midi Mime Types SiteMap Contact Subscribe © 2014 JimmyLandStudios