Lies Tab (ver 2) - Mcfly

"Lies"
"Mcfly"
"39380751";

     
"Lies"
"Lies"
 Mcfly - Lies (ver 2) Guitar Tab
    Lies Tab
    
       
    McFly
Lies
Radio:ACTIVE Deluxe Edition
Tuning: Standart

INTRO
G1 (Tom)
e|------------------------------------------------------------------|
B|------------------------------------------------------------------|
G|--7-777777-777-----------------------------------------------7\--|
D|--7-777777-777--8-8888888-888--9-9999999-999--8-888--77-777--7\--|
A|--5-555555-555--8-8888888-888--9-9999999-999--8-888--77-777--5\--|
E|----------------6-6666666-666--7-7777777-777--6-666--55-555-------|

G2 (Danny)
e|-----------------------|
B|-----------------------|
G|-----------------------| x3
D|------3-5-/7-5-3--0-3--|
A|--5~~------------------|
E|-----------------------|

e|-------------------------|
B|-------------------------|
G|-------------5-----------| 
D|------3-5-/7---7-5-3-0---|
A|--5~~--------------------|
E|-------------------------|

VERSE 1
After "No one's getting out alive..."
e|---------------------|
B|---------------------|
G|---------------------|
D|--------3--5h7-------|
A|--5--7-----------5---|
E|---------------------|

G2 (Danny)
"Do us all a favor..."
e|--10--10-10-10-10-10--13--|
B|--10--10-10-10-10-10--10--|
G|--------------------------| x2
D|--------------------------|
A|--------------------------|
E|--------------------------|

e|--9---9--9--9--9---12-12-12h13p12--|
B|--10--10-10-10-10--10-10-10--------|
G|-----------------------------------|
D|-----------------------------------|
A|-----------------------------------|
E|-----------------------------------|

After "I'm the way your weapons aim..."
e|----------------|
B|----------------|
G|----------------|
D|--------3--5h7--|
A|--5--7----------|
E|----------------|

VERSE 2
e|----------------------------------------|
B|----------------------------------------|
G|----------------------------------------|
D|--8~~--7~---------3--5h7--8---7---------|
A|--8~~--7~---5--7----------8---7----4-7--|
E|--6~~--5~-----------------6---5--5------|

CHORUS
e|--------------------------------------------------------|
B|--------------------------------------------------------|
G|--7-7-7777-777------------------------------------------|
D|--7-7-7777-777--8-8-8888-888--9-9-9999-999--8-88--7-77--| x2
A|--5-5-5555-555--8-8-8888-888--9-9-9999-999--8-88--7-77--|
E|----------------6-6-6666-666--7-7-7777-777--6-66--5-55--|

INTRO x1

VERSE 3
After "You're never gonna make it home..."
e|---------------------|
B|---------------------|
G|---------------------|
D|--------3--5h7-------|
A|--5--7-----------5---|
E|---------------------|

G1 (Tom)
"Did you miss the stop sign..."
e|--10--10-10-10-10-10--13--|
B|--10--10-10-10-10-10--10--|
G|--------------------------| x2
D|--------------------------|
A|--------------------------|
E|--------------------------|

e|--9---9--9--9--9---12-12-12h13p12--|
B|--10--10-10-10-10--10-10-10--------|
G|-----------------------------------|
D|-----------------------------------|
A|-----------------------------------|
E|-----------------------------------|

After "Once you're lying in the broken glass..."
e|----------------|
B|----------------|
G|----------------|
D|--------3--5h7--|
A|--5--7----------|
E|----------------|

e|-------------------|
B|-------------------|
G|-------------------|
D|--8~~--7----------|
A|--8~~--7-----4-7--|
E|--6~~--5---5------|

CHORUS x1

BRIDGE
e|--------------------------------|
B|--------------------------------|
G|----------7---------------------|
D|--5-------7---7---------3--5h7--|
A|--5-------5---7----5-7----------|
E|--3-----------5-----------------|

e|--------------------------------------------------|
B|----------7---------------------------------------|
G|----------7---------------------------------------|
D|--5-------7--------7-7-7-7-7-7-7-7-7-7-7-7-7-7-7--|
A|--5-------5--------7-7-7-7-7-7-7-7-7-7-7-7-7-7-7--|
E|--3----------------5-5-5-5-5-5-5-5-5-5-5-5-5-5-5--|
                 PM |------|   
BASS SOLO
e|-----------------------------|
B|-----------------------------|
G|--7-7------------------------|
D|--7-7---8-8---9-9---8-8--7--|
A|--5-5---8-8---9-9---8-8--7--|
E|--------6-6---7-7---6-6--5--|

INTRO x1

VERSE 4
e|------------------------------------------------------------|
B|------------------------------------------------------------|
G|------------------------------------------------------------|
D|--8-8-8-8-10-10-10-10------3-5h7---8-8-8-8-7-7-7---------|
A|--8-8-8-8-10-10-10-10--5-7---------8-8-8-8-7-7-7----4-7--|
E|--6-6-6-6-8--8--8--8---------------6-6-6-6-5-5-5--5------|

CHORUS x1
INTRO x2

ENDING
After bass
e|--------|
B|--------|
G|--5-7~--|
D|--5-7~--|
A|--3-5~--|
E|--------|
    
        

      
"Lies"
"Lies"
"Mcfly" "Lies" "39380752"
      
     
     Mcfly - Lies TabLies      People who played Mcfly - Lies Tab also
played these songs by 
      Mcfly:
      Let It Snow Chords, Youve Got A Friend Chords, All About You
Chords, Falling In Love Chords, Transylvania Acoustic Chords,
Obviously Chords, Lies Chords, The Heart Never Lies Acoustic Chords,
Too Close For Comfort Chords, Corrupted Chords, Heart Never Lies
Chords, Rockin Robin Chords  
  
  
  
   
   
     
    Quick tip, so you can enjoy Lies Tab even more:   
    
     YourChords.com Guitar Chords and Tabs Archive is currently
indexing over 240'000 songs from 21'000+ different artists. 
       And new chords just keep on coming in, so you will surely never
run out of them.      
Lies Tab!
     
Lies Tab, 


   Current rating: 0
   
   Rate: 
   1 
   2 
   3 
   4 
   5
  
  
  
    
    
  
  
 
 
     
      
     
     
 
 
  
  
   The chord pattern is shown here.   
  
  
  
 
 
 
 


  

 


 c4: "http://www.yourchords.com/168263/Mcfly/Lies-ver-2-Tab/"
The Best Equipment Deals | Best Music Deals
Midi Mime Types SiteMap Contact Subscribe © 2014 JimmyLandStudios