Blew Tab (ver 5) - Nirvana

"Blew"
"Nirvana"
"39380751";

     
"Blew"
"Blew"
 Nirvana - Blew (ver 5) Guitar Tab
    Blew Tab
    
       
    Tabbed by: ZAC CROOK

NOTE: I improvised a bit of this, like the quiet guitar during the
drums at 
the end and the hight note right before the guitar kicks in after the
bass 
in the intro.  I also set this as intermediate because it's difficult
to get 
every detail when playing this.  This is almost dead-on with the
recording.  
Blew is my favorite song of all-time, so I tried to get everything as
close 
as possible.

Tuning: Drop-D - Full step down

INTRO:
E-5-------------------------------------------------------------|
B---------------------------------------------------------------|
G---------------------------------------------------------------|
D--0-0-3-5-5/6-6-5--3-3-0-3h5-3h5----0-0-3-5-5/6-6-5--3-3-0-5h3-|
A--0-0-3-5-5/6-6-5--3-3-0-3h5-3h5----0-0-3-5-5/6-6-5--3-3-0-5h3-|
E--0-0-3-5-5/6-6-5--3-3-0-3h5-3h5----0-0-3-5-5/6-6-5--3-3-0-5h3-|
VERSE:  x2
E--------------------------------------0-------------0--|
B--------------------------------------0-------------0--|
G--------------------------------------0-------------0--|
D-0-3-5-5b/65b-5-5-3-3/5-5-3~-53/5-5-5-----53/5-5-5--|
A-------------------------------------------------------|
E---------------------------------------0-0-0---------0-|

E----------------------------------------0-------------0--|
B----------------------------------------0-------------0--|
G----------------------------------------0-------------0--|
D-0-3-5-5b/65b-5-5-3-3/5-5-3----53/5-5-5-----53/5-5-5--|
A-----------------------------5~--------------------------|
E-----------------------------------------0-0-0---------0-|
CHORUS:                          x2|
E----------------------------------|-----------------------------------------------|
B----------------------------------|-----------------------------------------------|
G----------------------------------|-----------------------------------------------|
D-3-5-X-5-5-3-0-3-3-5-X-5-5-3-5/6--|-3-5-X-5-5-3-0-3-3-5-X-5-5-3-5/777777777777777-|
A-3-5-X-5-5-3-0-3-3-5-X-5-5-3-5/6--|-3-5-X-5-5-3-0-3-3-5-X-5-5-3-5/777777777777777-|
E-3-5-X-5-5-3-0-3-3-5-X-5-5-3-5/6--|-3-5-X-5-5-3-0-3-3-5-X-5-5-3-5/777777777777777-|
*VERSE*
*CHORUS*
SOLO:
E----------------------------------------------------------------------------------|
B----------------------------------------------------------------------------------|
G-12b--12r-12-12-12-12-10p0-10-12-12b-12b~-12b-12-12-10-0----------10-10-10/15-14~-|
D---------------------------------------------------------0-12-10~-----------------|
A----------------------------------------------------------------------------------|
E----------------------------------------------------------------------------------|

E---------------------------------------------------------------------------------|
B----------------20b-20b-20b-20-20b-20-20b-20b-20-20b-20-20-20b-2018-1817-1715-|
G-17-17-19-17-19----------------19b----19b--------19b-----------------------------|
D---------------------------------------------------------------------------------|
A---------------------------------------------------------------------------------|
E---------------------------------------------------------------------------------|

E--------------------------------------------------------------|
B-15p13-15-15b-15-15p13----------------------------------------|
G-----------------------14~--14-13-12-10-12-12b-12-12p10p0-----|
D----------------------------------------------------------12~-|
A--------------------------------------------------------------|
E--------------------------------------------------------------|

E-----------------------------------------------------------------------------------------|
B-----------------------------------------------------------------------------------------|
G--------------10-12p10-12-12br~-12-12p10-------------------10-12p10-12-12br-12-12-10--12-|
D-12-10p0-10-12---------------------------12~-12-10p0-10-12-------------------------------|
A-----------------------------------------------------------------------------------------|
E-----------------------------------------------------------------------------------------|

E-----------------------------------------------|
B-13-13b(15)-(15)-(15)-(15)-(15)-(15)-(15)r(13)-|
G-----------------------------------------------|
D-----------------------------------------------|
A-----------------------------------------------|
E-----------------------------------------------|
*CHORUS*
OUTRO:      x8| (Quietly during drumming at end.)
E-------------|----------------------------------|
B-------------|----------------------------------|
G-------------|----------------------------------|
D-0-3-5-6-6-0-|----------------------------------|  
A-0-3-5-6-6-0-|-0-0-0-0-5-3-5-7-7-6-5-3-3/9~-96-|
E-0-3-5-6-6-0-|----------------------------------|
              PM.................................
LYRICS:

Oh, if you wouldn't mind, I would like to blew
And if you wouldn't mind, I would like to lose
Oh, if you wouldn't care, I would like to leave
Oh, if you wouldn't mind, I would like to breathe

Is there another reason for your stain?
Could you believe who we knew was stress and strain?
Here is another word that rhymes with shame!

Uh, if you wouldn't mind, I would like to blew
Oh, if you wouldn't mind, I would like to lose
And if you wouldn't care, I would like to leave
And if you wouldn't mind, I would like to breathe

Is there another reason for your stain?
Could you believe who we knew was stress and strain?
Here is another word that rhymes with shame!

You could do anything
You could do anything
You could do anything
You could do anything
You could do anything
You could do anything
You could do anything
You could do anything





    
        

      
"Blew"
"Blew"
"Nirvana" "Blew" "39380752"
      
     
     Nirvana - Blew TabBlew      People who played Nirvana - Blew Tab
also played these songs by 
      Nirvana:
      Smells Like Teen Spirit Chords, My Girl Chords, Heart Shaped Box
Chords, Come As You Are Acoustic Chords, Come As You Are Chords, Where
Did You Sleep Last Night Chords, The Man Who Sold The World Chords,
Where Did You Sleep Last Night Acoustic Chords, Rape Me Acoustic
Chords, In Bloom Chords  
  
  
  
   
   
     
    About the artist behind Blew Tab:   
    
     Nirvana was an American rock band that was formed by
singer/guitarist Kurt Cobain and bassist Krist Novoselic in Aberdeen,
Washington. Nirvana went through a succession of drummers, the
longest-lasting being Dave Grohl, who joined the band in 1990.With the
lead single "Smells Like Teen Spirit" from the group's second album
Nevermind (1991), Nirvana entered into the mainstream, bringing along
with it a subgenre of alternative rock called grunge. Other Seattle
grunge bands such as Alice in Chains, Pearl Jam, and Soundgarden also
gained popularity, and, as a result, alternative rock became a
dominant genre on radio and music television in the United States
during the early-to-middle 1990s. As Nirvana's frontman, Kurt Cobain
found himself referred to in the media as the "spokesman of a
generation", with Nirvana the "flagship band" of "Generation X".[3]
Cobain was uncomfortable with the attention and placed his focus on
the band's music, challenging the band's audience with its third
studio album In Utero (1993).Nirvana's brief run ended with Cobain's
death in April 1994, but the band's popularity continued in the years
that followed. More than eight years later, "You Know You're Right",
an unfinished demo from the band's final recording session, topped
radio playlists around the world. Since their debut, the band has sold
over fifty million albums worldwide.[4] Nirvana are often credited
with being one of the most popular and important rock bands of recent
years.[5]Indexed at Wikipedia.      
Blew Tab!
     
Blew Tab, 


   Current rating: 0
   
   Rate: 
   1 
   2 
   3 
   4 
   5
  
  
  
    
    
  
  
 
 
     
      
     
     
 
 
  
  
   The chord pattern is shown here.   
  
  
  
 
 
 
 


  

 


 c4: "http://www.yourchords.com/137067/Nirvana/Blew-ver-5-Tab/"
The Best Equipment Deals | Best Music Deals
Midi Mime Types SiteMap Contact Subscribe © 2014 JimmyLandStudios