Karma Tab - Opeth

"Karma"
"Opeth"
"39380751";

     
"Karma"
"Karma"
 Opeth - Karma Guitar Tab
    Karma Tab
    
       
    |=a bar line (an actual bar line)
( )=a ghost note
< >=a sustained note
b=a (pre-)bent note
>=an emphasized note/chord
*=a transcriber´s note

Time 4/4
Riff A
Gtr.1 w/dist. (left speaker)         *=a grad. slide        play 6
times
|-----------------|-----------------|-----------------|-----------------|
|*------3---3-3---|-----------------|----------*------|----------------*|
|-4---x-2---2-2(x)|-----------------|-9-9-x-8-8gs-----|-----5---5---5---|
|-2---x-0---0-0(x)|-----------------|-x-x-x-x-x-----3-|x-5---5---5---|
|*3---x-2---2-2(x)|-2---------------|-7-7-x-6-6gs---3-|x-3---3---3--*|
|-0---------------|-----2-1-----1-x-|---------------1-|x-------------|
Gtr.2 w/dist. (right speaker)
|-----------------|-----------------|-----------------|-----------------|
|*----------------|-----------------|-----------------|----------------*|
|--(look above)---|s8---------------|-----------(look
above)------------|
|-----------------|-x---------------|-----------------|-----------------|
|*----------------|s6---------------|-----------------|----------------*|
|-----------------|-----5-4-----4-0-|-----------------|-----------------|
Riff B
Gtr.1                                1.-3.
endings.....................>
|-----------------|-----------------|-----------------|-----------------|
|-----------------|-----------------|-----------------|----------------*|
|-----------------|-----2-------2-x-|-5-----4-------0-|0-0---0-0-0---|
|-2-2---1---------|-----------------|-2-----5---2---1-|1-1---1-1-1---|
|-2-2---x---3-----|---3-------------|-0--(0)0-----x-3-|3-3---3-3-3--*|
|-0-0---2---5---5-|--------------|-----------------|-----------------|
Gtr.2
|-----------------|-----------------|-----------------|-----------------|
|*----------------|-----------------|-----------------|----------------*|
|-----------------|-----------------|------------(look
above)-----------|
|-2-2---1---------|-----3-------3s--|-----------------|-----------------|
|*----------3-----|---0-------------|-----------------|----------------*|
|---------------1-|--------------|-----------------|-----------------|
4. ending..........................>
Gtrs.1&2                                               2/4 (faster)
|-----------------|-----------------|--------|--------|---------|
|-----------------|-----------------|--------|--------|---------|
|-5-----4---------|-3--2------------|-----(rest)------|-(drums)-|
|-2-----5---2-----|-3--2--2---222222|--------|--------|---------|
|-0--(0)0-----x---|-1--0--2---222222|--------|--------|---------|
|-----------------|-------0---000000|--------|--------|---------|
Riff C
Time 12/8
Gtr.1
|-------------------------|-------------------------|
|*------------------------|-------------------------|
|-4---4-4-4-4-4---4-4-4-4-|-4---4-4-4-4-4---4-4-4-4-|
|-4---4-4-4-4-4---4-4-4-4-|-4---4-4-4-4-4---4-4-4-4-|
|*2---2-2-2-2-2---2-2-2-2-|-0---0-0-0-0-0---0-0-0-0-|
|-------------------------|-------------------------|
Gtr.2
|-------------------------|-------------------------|
|*2---2-2-2-2-2---2-2-2-2-|-2---2-2-2-2-2---2-2-2-2-|
|-4---4-4-4-4-4---4-4-4-4-|-4---4-4-4-4-4---4-4-4-4-|
|-4---4-4-4-4-4---4-4-4-4-|-4---4-4-4-4-4---4-4-4-4-|
|*2---2-2-2-2-2---2-2-2-2-|-0---0-0-0-0-0---0-0-0-0-|
|-------------------------|-------------------------|
Gtr.1
|-------------------------|-------------------------|
|-------------------------|------------------------*|
|-------------------------|-------------------------|
|-5---5-5-5-5-5---5-5-0---|-2---2-2-2-2-----2-------|
|-5---5-5-5-5-5---5-5-x---|-2---2-2-2-2-----0---0-0*|
|-3---3-3-3-3-3---3-3-2---|-0---0-0-0-0-0-0---------|
                                       pm..>   pm..>
Gtr.2                   
|-------------------------|-------------------------|
|-------------------------|------------------------*|
|-------(look above)------|------(look above)-------|
|-------------------------|-------------------------|
|-------------------------|------------------------*|
|-------------------------|-------------------------|
Riff C2
Gtr.1 w/riff C
Gtr.2
|-------------------------|-------------------------|
|(12--1212121212--12121212)-------------------------|
|-11--1111111111--11111111|------------%------------|
|-9---9-9-9-9-9---9-9-9-9-|-------------------------|
|*9---9-9-9-9-9---9-9-9-9-|-------------------------|
|-------------------------|-------------------------|
Gtr.2                                   play 6 times
|-------------------------|-------------------------|
|(8---8-8-8-8-8---8-8-8-8)|(5---5-5-5-5-----5)-----*|
|-7---7-7-7-7-7---7-7-7-7-|-4---4-4-4-4-x-x-4---x-x-|
|-5---5-5-5-5-5---5-5-5-5-|-2---2-2-2-2-x-x-2---x-x-|
|-5---5-5-5-5-5---5-5-5-5-|-2---2-2-2-2-x-x-2---x-x*|
|-------------------------|-------------------------|
Riff D
Gtrs.1&2
|(4---4-4-4-4-4s5-5-5)----|(8---8-8-8-8)------------|
|*4---4-4-4-4-4s5-5-5-----|-8---8-8-8-8-------------|
|-4---4-4-4-4-4s5-5-5-----|-8---8-8-8-8-------------|
|-6---6-6-6-6-6s7-7-7-----|10--10101010-2---2---2---|
|*6---6-6-6-6-6s7-7-7-----|10--10101010-2---2---2---|
|-4---4-4-4-4-4s5-5-5-----|-8---8-8-8-8-0---0---0---|

Gtrs.1&2
|(4---4-4-4-4-4s5-5-5)----|(8---8-8-8-8-8)----------|
|-4---4-4-4-4-4s5-5-5-----|-8---8-8-8-8-8----------*|
|-4---4-4-4-4-4s5-5-5-----|-8---8-8-8-8-8-----------|
|-6---6-6-6-6-6s7-7-7-----|10--1010101010---2---2---|
|-6---6-6-6-6-6s7-7-7-----|10--1010101010---2---2--*|
|-4---4-4-4-4-4s5-5-5-----|-8---8-8-8-8-8---0---0---|
Riff C2  4 times
Riff D  one and a half times
Riff D2
Gtrs.1&2
|-------------------------|-------------------------|
|-------------------------|-------------------------|
|-------------------------|-9---9-9-9--14-----------|
|-6---6-6-6--10--101010---|-x---x-x-x---x-----------|
|-x---x-x-x---x---x-x-x---|-7---7-7-7--12-----------|
|-4---4-4-4---8---8-8-8---|-------------------------|
Add. gtr. (left speaker)
|-------------------------|-------------------------|
|-------------------------|-------------------------|
|s5-------4-------5---7---|s9-------7---5-------7---|
|-------------------------|-------------------------|
|-------------------------|-------------------------|
|-------------------------|-------------------------|
Add. gtr. (right speaker)
|-------------------------|-------------------------|
|-------------------------|-------------------------|
|s9-------7-------5---4---|-4--------4h5------------|
|-------------------------|-------------7-------5---|
|-------------------------|-------------------------|
|-------------------------|-------------------------|
4/4 (equal to 4/4)
Riff E   *=sustained notes by add. gtrs.
Gtr.3 (acoustic)                     1.-7.
endings.....................>
|-----0-----0-----|-0-----0---------|-----0-----0-----|-0---------------|
|**---------------|---------0h1-----|-----------------|-------0-1h0----*|
|2-----2-----2-|-----2-------2---|---2-----2-----2-|-----------------|
|----3-----5---|---0-------------|-------3-----5---|-----2-------2---|
|*0---------------|-----------------|-0---------------|---3-----------3*|
|-----------------|---------------0-|-----------------|-----------------|
8..................................>
|-----------------|---------2-------|
|-0-----1----s3---|3-3---0-------|
|-0---x-2----s4---|4-4---0-------|
|-2---x-3----s5---|5-5---2-------|
|-0---x-----------|---------2-------|
|-----------------|---------0-------|
4/4
Riff F
*=u is upstroke, d is downstroke.
Gtr.3 
  d     u   d u       d   u d   u    sim.
|-2-----2-----0---|0-----0-------|-2-----2-----0---|0-----0-------|
|*0-----0-----0---|0-----0-------|-3-----3-----3---|3-----3-------|
|-0-----0-----0---|0-----0-------|-4-----4---4-4---|4---4-4-------|
|-2-----2---2-2---|2---2-2---2---|-4-----4---4-4---|4---4-4-------|
|*2-----2---2-2---|2---2-2---2---|-2-----2---0-0---|0---0-0-------|
|-0-----0---0-0---|0---0-0---0---|-----------------|---------------0-|
                                                     #=Some extra 
                                                     stumming on
repeats
|-----------------|-----------------|-----------------|-----------------|
|-------3---------|---3---3-3-------|-------3---------|-2-------#------*|
|-----4-----4-----|---4---4-4-------|-----4-----4-----|-3---------------|
|---4---------4---|---4---4-4-------|---4---------4---|-4---------------|
|-----------------|---x---x-x-------|-----------------|-x--------------*|
|-3-------------3-|3---3-2-----0-|-2-------------2-|-2---------------|
Gtr.4 (clean electric)
Gtr.3 w/ riff F   *=don´t strike, #=possibly
|s12#-------------|-----------------|s12#-------------|-----------------|
|*x---------------|-----------------|-x---------------|-----------------|
|s9---------*-----|-----------------|s9---------*-----|-----------------|
|-------7--s5-0-2-|--------------|-------7--s5-4---|------------4-|
|*----------------|-----------------|-----------------|-----------------|
|-----------------|-----------------|-----------------|-----------------|
                                                            Play 4
times
|-----------------|-----------------|-----------------|-----------------|
|-----------------|-----------------|-------------2h3-|-2--------------*|
|-----------------|-----------------|-----------0-----|-3---------------|
|-5-4---2---0-----|-----------------|---2---4---------|-----------------|
|-------------2---|------------2-|-3---------------|----------------*|
|-----------------|-----------------|-----------------|-----------------|
Riff G
Gtr.3   (gtr.3 is out for the 4th round)
|-----------------|-----------------|-----------------|-----------------|
|*0-0-0-0-0-0-0)--|--------------|-----------------|-----------------|
|-x-x-x-x-x-x-x---|-x---------------|-----------------|-----------------|
|s9-9-9-9-9-9-9---|--------------|-----------------|-----------------|
|*9-9-9-9-9-9-9---|--------------|-----------------|-----------------|
|-----------------|-----------------|-----------------|-----------------|
Gtr.1   #=gtrs.1&2 strum Bm chords on the 4th round    
|-------------2---|------2-------|(2)---(2)--------|-----------------|
|*-#----------3---|------3-------|-3-----3---------|-----------------|
|-------------4---|------4-------|-4-----4---------|-----------------|
|-------------4---|------4-------|-4-----4-----2---|--------------|
|*------------2---|------2-------|-0-----0-----2---|--0h2---------|
|-----------------|-----------------|-------------0---|------0---0-0-|
              >                       >     >     >               
pm..>
Gtr.2                                                  *=don´t strike
|-----------------|-----------------|-----------------|-----------------|
|*-#----------3---|3-3---3-------|-3-----3---------|---*-------------|
|-------------4---|4-4---4-------|-4-----4---s11---|--s9---9---------|
|-------------4---|4-4---4-------|-4-----4-----x---|---x---x---------|
|*------------2---|2-2---2-------|-0-----0----s9---|--s7---7---------|
|-----------------|-----------------|-----------------|-----------------|
              > 
Gtr.3
tacet............................................................>
Gtr.1
|-----------------|-----------------|-----------------|-----------------|
|-----------------|-----------------|-----------------|----------------*|
|-----------------|-----------------|(2)---(2)--------|-----------------|
|4h5p4--4---------|-----------------|-0-----0-----2---|2-------------|
|-----7---5h7-----|-----------------|-0-----0-----2---|2-0h2--------*|--
|-------------0---|0-----0---0-0-|-------------0---|0-----0---0-0-|
                               pm..>  >     >     >               
pm..>
Gtr.2   *=don´t strike              
1.-3..............................>
|-----------------|-----------------|-----------------|-----------------|
|-----------------|-----------------|-----------------|-----*----------*|
|-----------------|-----------------|11-----7---s12---|12>-s9---9-------|
|-----------9-7---|--------------|-x---x-x--x--x---|-x---x---x-------|
|----*--7-10------|---9-----10------|-9---x-5--xs10---|10>-s7---7------*|
|-0-5s7-----------|-----------------|-----------------|-----------------|
4.ending...........................>
Gtrs.1&2   *=note in parentheses only gtr.1
|-----------------|-----------------|
|-----------------|-----------------|
|------------(0)*-|-----------------|
|-0-----0-----2---|-----------------|
|-0-----0-----2---|---3-----3-3-----|
|-----------------|---5-----5-5-----|
Riff H                                                       End riff
H        
Gtr.1
Gtr.2 (enters 2nd time )            
1.ending..........................>
|-----------------|-----------------|-----------------|-----------------|
|*----------------|-----------------|-----------------|----------------*|
|-----------------|-----------------|-----------------|-----------------|
|-----------------|-----------------|-----------------|-----------------|
|*----------------|-----------------|-----------------|----------------*|
|-4---4-4-4-4-4---|-4-4-4-4-0-0-0-0-|-3---3-3-3-3-3---|-3-3---3-0-0-0-0-|
Gtrs.1&2
2.ending...........................>
|-----------------|-----------------|
|-----------------|-----------------|
|-----------------|-----------------|
|-----------------|-----------------|
|-------------2---|-2---------------|
|-3---3-3---3-0---|-0---------------|
Gtrs.1&2 riff H 4 times
Add. gtr. w/dist.   *=all notes from D string are palm muted.
|-----------------|-----------------|-----------------|-----------------|
|*----------------|-----------------|-----------------|----------------*|
|-4-----4-----4---|---4-----4---5---|-4-----4-----4---|---4-----4---5---|
|---6*6---6-6---6-|-6---6-6---6---6-|---5-5---5-5---5-|-5---5-5---5---5-|
|*----------------|-----------------|-----------------|----------------*|
|-----------------|-----------------|-----------------|-----------------|
Riff H 6 times
Gtr.1 (gtr.2 enters 2nd time)
Riff I
Gtr.1              Gtrs.1&2
|-----------------|-----------------|-----------------|-----------------|
|-----------------|-----------------|-----------------|-----------------|
|-------0---------|---------3h0-----|-----------------%-----------------|
|-----0-----0-----|-----------------|-----------------|-----------------|
|---5-------------|-------4-----4---|-----------------|-----------------|
|-4-------------3-|-3-5-6---------0-|-----------------|-----------------|
                   pm....>
Riff I                                              add. gtr out
Add. gtr. (clean electric)                          gtrs.1&2
|-----------------|-----------------|-----------------|-----------------|
|-----------------|-----------------|-----------------|---------------6-|
|-----------------|-----------------|-------0---------|---------6-6---7-|
|-----------------|-----------------|-----0-----------|---------4-4-x-7-|
|-----------------|-----------------|---5-------------|---------4-4-x-5-|
|-----------------|-----------------|-4-------------3-|5-6-----------|
    
        

      
"Karma"
"Karma"
"Opeth" "Karma" "39380752"
      
     
     Opeth - Karma TabKarma      People who played Opeth - Karma Tab
also played these songs by 
      Opeth:
      Coil Tab, Soldier Of Fortune Chords, Harvest Chords, Ending
Credits Chords, Den Standiga Resan Chords, Burden Chords, Windowpane
Tab, In My Time Of Need Tab, Dirge For November Tab, Requiem Tab  
  
  
  
   
   
     
    About the artist behind Karma Tab:   
    
     Opeth is a Swedish heavy metal band that formed in 1990 in
Stockholm. While the band has been through several personnel changes,
singer, guitarist, and songwriter Mikael Ã…kerfeldt has remained
Opeth's driving force since joining shortly after its inception.While
firmly rooted in Scandinavian death metal, Opeth has consistently
incorporated influence by progressive music, folk, blues rock and jazz
into their usually lengthy songs. Many compositions include acoustic
guitar parts and strong dynamic shifts, as well as both growling and
clean vocals. Though they rarely toured in support of their first four
albums, Opeth conducted their first world tour after the 2001 release
of Blackwater Park.Opeth has released nine studio albums, two live
albums, one box set, and one DVD. The band released its debut album
Orchid in 1995, but did not experience American commercial success
until the 2003 release of seventh effort Damnation which debuted at
number 192 on the Billboard 200. Opeth's ninth studio album,
Watershed, was released on June 3, 2008 and debuted at number 23
.Indexed at Wikipedia.      
Karma Tab!
     
Karma Tab, 


   Current rating: 4.1
   
   Rate: 
   1 
   2 
   3 
   4 
   5
  
  
  
    
    
  
  
 
 
     
      
     
     
 
 
  
  
   The chord pattern is shown here.   
  
  
  
 
 
 
 


  

 


 c4: "http://www.yourchords.com/107511/Opeth/Karma-Tab/"
The Best Equipment Deals | Best Music Deals
Midi Mime Types SiteMap Contact Subscribe © 2014 JimmyLandStudios