Bring Back The Sun Tab (ver 2) - Our Lady Peace

"Bring Back The Sun"
"Our Lady Peace"
"39380751";

     
"Bring Back The Sun"
"Bring Back The Sun"
 Our Lady Peace - Bring Back The Sun (ver 2) Guitar Tab
    Bring Back The Sun Tab
    
       
                                  OUR LADY PEACE - BRING BACK THE SUN
                                          GRAVITY
TABBED BY DONKEY FLY

I FOUND OUT THAT THE OTHER VERSION WAS COPIED FROM A  FAN SITE AND IT
WASNT QUITE
RIGHT OR SPECIFIC ENOUGH , SO I TABBED IT MY SELF
   Intro   - LOOK AT BOTTOM FOR A VARIATION OF INTRO AND VERSES
E|----------------------------------------------------------------||
B|----------------------------------------------------------------||
G|--------------------1-------------------------------------------||
D|-------0h4----------2-------0h4----------11---------------------||
A|---0h4------0-4-4-4-2---0h4------0-7-7-9-11---------------------||
E|------------2-2-2-2-0------------2-5-5-7--9---------------------||

Verses - With ALTERNATE Pickings , Improvisation Can be Used

E|-----------------------------------------------------------------||
B|-----------------------------------------------------------------||
G|--------------------1-------------------------8--
D|-------0h4----------2-------0h4----------11----8-
A|---0h4------0-4-4-4-2---0h4------0-7-7-9-11----------------------||
E|------------2-2-2-2-0------------2-5-5-7--9----------------------||

                       

Chorus
      A                 Ab              Gb                  E
E|------------------------------------------------------------------------||
B|------------------------------------------------------------------------||
G|-----------------------------------------------------1-1-1-1-1-1-1-1-1--||
D|-7-7-7-7-7-7-7-7-7-7-7-7-7-7-7-7-7-4-4-4-4-4-4-4-4-4-2-2-2-2-2-2-2-2-2--||
A|-7-7-7-7-7-7-7-7-7-7-7-7-7-7-7-7-7-4-4-4-4-4-4-4-4-4-2-2-2-2-2-2-2-2-2--||
E|-5-5-5-5-5-5-5-5-5-4-4-4-4-4-4-4-4-2-2-2-2-2-2-2-2-2-0-0-0-0-0-0-0-0-0--||
 |
 |   Im not Sure About The  Alternate Picking Here
E|--------------------------------------------------------------------------||
B|-------0---------------0-------------------0----------------0-------------||
G|------6-6-------------6-6-----------------2-2--------------1-1------------||
D|-----7---7-----------7---7---------------4---4------------2---2-----------||
A|----7-----7---------7-----7-------------4-----4----------2-----2----------||
E|---5-------5-------4-------4-----------2-------2--------0-------0---------||
Solo

E|-----------------------------------------------------------------------------------||
B|----------------------------------6---6---6--8--6--4--4-4--2-2--1-1--1--2--1-------||
G|-1--1\5--5-5--5-5--6-6-5-5-3-3--3---3---3------------------------------------3--2-||
D|-----------------------------------------------------------------------------------||
A|-----------------------------------------------------------------------------------||
E|-----------------------------------------------------------------------------------||

E|-----------------------------------------------------------------------------------------------------||
B|---------------------------------------9---9---9---11-11--9-9-8-8--8-9-8-8--6-6--4-4--2-2--1-1-3-1-0-||
G|-0--1--3---0--1--3---0--1--3--5--3---5---5---5-------------------------------------------------------||
D|-----------------------------------------------------------------------------------------------------||
A|-----------------------------------------------------------------------------------------------------||
E|-----------------------------------------------------------------------------------------------------||

Chorus/Interlude Solo

E|----------------------------------------------------------------||
B|-9h11-9h11-9h11-9h11-9h11-9h11-9h11-9h11-9h11-9h11-11-----------||
G|----------------------------------------------------------------||
D|----------------------------------------------------------------||
A|----------------------------------------------------------------||
E|----------------------------------------------------------------||
E|----------------------------------------------------------------||
B|-11h13-11h13-11h13-11h13-11-16-16-16-16-16-16-16-16-16-16-------||
G|----------------------------------------------------------------||
D|----------------------------------------------------------------||
A|----------------------------------------------------------------||
E|----------------------------------------------------------------||

THATS THE BASIC PARTS OF IT.....THERE IS LOADS OF ALTERNATE PICKING IN
THIS SONG
IF I GET TIME I WILL TRY AND TAB ALL OF THEM AND THEN UPDATE THIS

Intro
Verse
Chorus
Intro
Verse
Chorus
Solo
Chorus/Interlude
Chorus/Interlude With Chorus/Interlude Solo
Intro (First Part of Riff With 'Little White House')

------------------------------------------------------------------------

INTRO AND VERSES VARIATION - I was just messing and tabbed this up ,
this sounds
right aswell as my original.

E|----------------------------------------------------------------||
B|-----------------0----------------------0-2---------------------||
G|-------------2-2----1---------------2-2-------------------------||
D|-------0h4-------------------0h4--------------------------------||
A|---0h4-------------------0h4------------------------------------||
E|-----------2----------------------2-----------------------------||
    
        

      
"Bring Back The Sun"
"Bring Back The Sun"
"Our Lady Peace" "Bring Back The Sun" "39380752"
      
     
     Our Lady Peace - Bring Back The Sun TabBring Back The Sun     
People who played Our Lady Peace - Bring Back The Sun Tab also played
these songs by 
      Our Lady Peace:
      4 Am Chords, Not Enough Chords, Somewhere Out There Chords,
Supermans Dead Chords, Innocent Chords, Clumsy Acoustic Chords,
Dreamland Acoustic Chords, Apology Chords, Picture Tab  
  
  
  
   
   
     
    About the artist behind Bring Back The Sun Tab:   
    
     Our Lady Peace, often abbreviated OLP, is an award-winning
Canadian alternative rock band consisting of Raine Maida, Duncan
Coutts, Jeremy Taggart and Steve Mazur. Throughout their career, the
band has sold over five million albums worldwide,[2] won four Juno
Awards, and won ten MuchMusic Video Awards—the most MMVAs ever
awarded to any artist or group.[3]The band has thus-far released six
studio albums, one live album, and one compilation album, and are
known famously for their many hit singles ranging from "Superman's
Dead" to "Somewhere Out There". The band is currently working on their
seventh studio release,[4] which is nearing completion. No specific
release date has yet been confirmed.OLP's first four studio albums,
spanning from their grunge-styled Naveed to their 2001 concept album
Spiritual Machines, are widely considered to contain their most unique
and original music to date. Maida's flawless, chilling falsetto was
also an important factor in the music's success, prominently used in
songs such as their 1999 single, Thief.Many cite a distinct change
toward a more generic, mainstream rock sound in their two most recent
studio albums—Gravity and Healthy in Paranoid Times. Maida's
falsetto was also lost during these albums. Maida has recently
acknowledged this change, and says that former band producer Bob Rock
pushed the band in that direction.[5] Maida struggles with the change,
and says he "might be able to get back to that [original style of
music]" in future albums.[5]Indexed at Wikipedia.      
Bring Back The Sun Tab!
     
Bring Back The Sun Tab, 


   Current rating: 4.1
   
   Rate: 
   1 
   2 
   3 
   4 
   5
  
  
  
    
    
  
  
 
 
     
      
     
     
 
 
  
  
   The chord pattern is shown here.   
  
  
  
 
 
 
 


  

 


 c4:
"http://www.yourchords.com/65827/Our-Lady-Peace/Bring-Back-The-Sun-ver-2-Tab/"
The Best Equipment Deals | Best Music Deals
Midi Mime Types SiteMap Contact Subscribe © 2014 JimmyLandStudios