Im Slowly Turning Into You Tab - White Stripes

"Im Slowly Turning Into You"
"White Stripes"
"39380751";

     
"Im Slowly Turning Into You"
"Im Slowly Turning Into You"
 White Stripes - Im Slowly Turning Into You Guitar Tab
    Im Slowly Turning Into You Tab
    
       
    The White Stripes - I'm Slowly Turning Into You
Tabbed by wilk3, famhen@web.de
  
Artist: The White Stripes
Title: I'm Slowly Turning Into You
Album: Icky Thump
Email: famhen@web.de
================================================

Standard Tuning

E|------------|
B|------------|
G|------------|
D|-5r----3-3--| x 18 (clean)
A|-5r----3-3--|
E|-3r----1-1--|
E|-----------------------------------------------------|
B|-----------------------------------------------------|
G|------------7r---------7-5r---7/5--3---3-2-----------|
D|-5r----3/5--7r-------5-7-5r---7/5--3---3-2-----------| x6
(distortion)
A|-5r----3/5--5r-------5-5-3r---5/3--1---1-0-----------|
E|-3r----1/3-----------3-------------------------------|
E|------------|
B|------------|
G|------------|
D|-5r----3-3--| x 12 (distortion)
A|-5r----3-3--|
E|-3r----1-1--|
E|------------|
B|------------|
G|------------|
D|-5r----3-3--| x 5 (clean)
A|-5r----3-3--|
E|-3r----1-1--|
E|-------------------------------------------------------------------------------------------------------------------|
B|-------------3--6---------------3--------------------3--6------------------------------------3-6-------------------|
G|---------3-5----------------3-5-----3------------3-5---------------3-5-5b3-3r-------------3-5----------------------|
D|-3-5-3-5------------3-5-3-5--------------3-5-3-5-----------3-5-3-5---------------3-5-3-5---------------------------|
A|-------------------------------------------------------------------------------------------------------------------|
E|-------------------------------------------------------------------------------------------------------------------|
E|------------------------------------------------------5-5-3r------------10-8-------------------10-8----------------|
B|---------------------------------3--6-----3-6----3-6-------------------------11-10-11-10-8----------11-10-11-10-8r-|
G|-----------------------------3-5--------5------5-------------------------------------------7r----------------------|
D|-3---3-3-3-4-5r------3-5-3-5---------------------------------------------------------------------------------------|
A|-------------------------------------------------------------------------------------------------------------------|
E|-------------------------------------------------------------------------------------------------------------------|

E|-10-8---------------------------------5-5----|
B|------11-10-11-10-8r-----6-------6--------8--|
G|-----------------------5---7---5---7---------|
D|---------------------------------------------|
A|---------------------------------------------|
E|---------------------------------------------|
E|-----------------------------------------------------|
B|-----------------------------------------------------|
G|------------7r---------7-5r---7/5--3---3-2-----------|
D|-5r----3/5--7r-------5-7-5r---7/5--3---3-2-----------| x4
(distortion)
A|-5r----3/5--5r-------5-5-3r---5/3--1---1-0-----------|
E|-3r----1/3-----------3-------------------------------|
    
        

      
"Im Slowly Turning Into You"
"Im Slowly Turning Into You"
"White Stripes" "Im Slowly Turning Into You" "39380752"
      
     
     White Stripes - Im Slowly Turning Into You TabIm Slowly Turning
Into You      People who played White Stripes - Im Slowly Turning Into
You Tab also played these songs by 
      White Stripes:
      Seven Nation Army Chords, Jolene Chords, White Moon Tab, We Are
Going To Be Friends Chords, Hotel Yorba Chords, Effect And Cause
Chords, Im Lonely But I Aint That Lonely Yet Chords, Youre Pretty Good
Looking Chords, My Doorbell Chords, I Just Dont Know What To Do With
Myself Chords, 300 Mph Torrential Outpour Blues Tab  
  
  
  
   
   
     
    About the artist behind Im Slowly Turning Into You Tab:   
    
     The White Stripes is an American alternative rock band from
Detroit, Michigan formed in 1997 by guitarist, singer,
multi-instrumentalist and songwriter Jack White and
drummer/percussionist Meg White, who have remained the consistent
line-up. After releasing several singles and three albums within the
Detroit independent music scene, The White Stripes rose to prominence
in 2002 as part of the garage rock revival movement. Their successful
albums, White Blood Cells and Elephant, drew them attention from a
large variety of media outlets in the United States and the United
Kingdom.The White Stripes use a low fidelity, do-it-yourself approach
to writing and recording, stressing a raw, minimalistic simplicity of
composition and arrangement mostly inspired by punk rock, blues rock,
folk rock and country music. The band uses a color scheme of red,
white, and black colors and clothing. The band's latest three albums
have each won a Grammy for Best Alternative Album.Indexed at
Wikipedia.      
Im Slowly Turning Into You Tab!
     
Im Slowly Turning Into You Tab, 


   Current rating: 0
   
   Rate: 
   1 
   2 
   3 
   4 
   5
  
  
  
    
    
  
  
 
 
     
      
     
     
 
 
  
  
   The chord pattern is shown here.   
  
  
  
 
 
 
 


  

 


 c4:
"http://www.yourchords.com/144529/White-Stripes/Im-Slowly-Turning-Into-You-Tab/"
The Best Equipment Deals | Best Music Deals
Midi Mime Types SiteMap Contact Subscribe © 2014 JimmyLandStudios