Sealings Tab - Yeah Yeah Yeahs

"Sealings"
"Yeah Yeah Yeahs"
"39380751";

     
"Sealings"
"Sealings"
 Yeah Yeah Yeahs - Sealings Guitar Tab
    Sealings Tab
    
       
   
-------------------------------------------------------------------------------
        Sealings - Yeah Yeah Yeahs
-------------------------------------------------------------------------------
Tabbed by:theStallions
Email:austinemail13@yahoo.com

Tuning:Standard

Main Riff
e|--------------------------------------------------------------------------|
B|--------------------------------------------------------------------------|
G|--------------------------------------------------------------------------|
D|--------------------------------------------------------------------------|
A|--------------------------------------------------------------------------|
E|15-0-15-15-0--15-0-15-0-15-0-15-0--14-0-14-0--14-0-14-0-14-0--------------|

e|--------------------------------------------------------------------------|
B|--------------------------------------------------------------------------|
G|--------------------------------------------------------------------------|
D|--------------------------------------------------------------------------|
A|--------------------------------------------------------------------------|
E|17-0-17-0--17-0-17-0-17-0-17-17----19-19-19-17-15-12----------------------|
Very Sick Main Riff

"I want out"
e|--------------------------------------------------------------------------|
B|--------------------------------------------------------------------------|
G|55/77--------17-------19--------------------------------------------------|
D|55/77---------------------------------------------------------------------|
A|33/55---3/15----3/15------------------------------------------------------|
E|--------3/15----3/15------------------------------------------------------|
"drop drop..."
e|--------------------------------------------------------------------------|
B|--------------------------------------------------------------------------|
G|--------------------------------------------------------------------------|
D|/1010101010---55555---77777---77777---------------------------------------|
A|/1010101010---55555---77777---77777---------------------------------------|
E|/8 8 8 8
8----33333---55555---55555---------------------------------------|
"love is in the middle"
e|--------------------------------------------------------------------------|
B|10-10-10-10-10-10-10-108/12-----10-10-10-10-10-10-10-108/14-14----------|
G|--------------------------------------------------------------------------|
D|--------------------------------------------------------------------------|
A|--------------------------------------------------------------------------|
E}--------------------------------------------------------------------------|

e|---------------------------------------------------------------------------|
B)12-12-12-12-12-12-12-1210/15-----12-12-12-12-12-12-12-1210/17------------|
G|---------------------------------------------------------------------------|
D|---------------------------------------------------------------------------|
A|---------------------------------------------------------------------------|
E}---------------------------------------------------------------------------|

thats pretty much it. enjoy.
    
        

      
"Sealings"
"Sealings"
"Yeah Yeah Yeahs" "Sealings" "39380752"
      
     
     Yeah Yeah Yeahs - Sealings TabSealings      People who played
Yeah Yeah Yeahs - Sealings Tab also played these songs by 
      Yeah Yeah Yeahs:
      Maps Acoustic Chords, Turn Into Chords, Heads Will Roll Tab,
Gold Lion Acoustic Chords, Hysteric Acoustic Chords, Hysteric Chords,
Hello Tomorrow Chords, Y Control Tab, Warrior Chords  
  
  
  
   
   
     
    About the artist behind Sealings Tab:   
    
     Yeah Yeah Yeahs is a New York City-based punk band. The band
consists of lead singer Karen O, drummer Brian Chase, and guitarist
Nick Zinner. In 2000 they formed a trio, and were later joined by
second guitarist Imaad Wasif in 2006 for touring purposes. According
to an interview that aired during the ABC network's Live from Central
Park SummerStage series, the band's name was taken from modern New
York City vernacular. The band has recorded two studio albums; the
first, Fever to Tell, was released in 2003. The second, Show Your
Bones, was released in 2006 and was named the second best album of the
year by NME.Indexed at Wikipedia.      
Sealings Tab!
     
Sealings Tab, 


   Current rating: 3.9
   
   Rate: 
   1 
   2 
   3 
   4 
   5
  
  
  
    
    
  
  
 
 
     
      
     
     
 
 
  
  
   The chord pattern is shown here.   
  
  
  
 
 
 
 


  

 


 c4: "http://www.yourchords.com/91756/Yeah-Yeah-Yeahs/Sealings-Tab/"
The Best Equipment Deals | Best Music Deals
Midi Mime Types SiteMap Contact Subscribe © 2014 JimmyLandStudios