Woke Up With Wood Tab (ver 2) - Zz Top

"Woke Up With Wood"
"Zz Top"
"39380751";

     
"Woke Up With Wood"
"Woke Up With Wood"
 Zz Top - Woke Up With Wood (ver 2) Guitar Tab
    Woke Up With Wood Tab
    
       
    Rhythm Guitar

      H        H           W                    H        H         
E||---------------------|-------------------|---------------------|
B||---------------------|-------------------|---------------------|
G||---------------------|-------------------|---------------------|
D||--10-----------------|-------------------|--10-----------------|
A||--10-----------------|-------------------|--10-----------------|
E||---8-----------------|-------------------|---8-----------------|
  W                   H        H           H        H         
-------------------|--------------------|--------------------|
-------------------|--------------------|--------------------|
-------------------|--------------------|--------------------|
-------------------|--8-----------------|--3-----------------|
-------------------|--8-----------------|--3-----------------|
-------------------|--6-----------------|--1-----------------|
   H        H           H        E  E  E  E   
---------------------|-----------------------|
---------------------|-----------------------|
---------------------|-----------------------|
--10-----------------|--------------3--5--8--|
--10-----------------|--------------3--5--8--|
---8-----------------|--------------1--3--6--|
   >           >                                                   
   E   E   E   E   E   E   E   E      E   E   E   E  E  E  E  S S  
----------------------------------|-------------------------------|
----------------------------------|-------------------------------|
----------------------------------|-------------------------------|
--10--10--10--10--10--10--10--10--|--10--10--10--10--8--8--8--8-8-|
--10--10--10--10--10--10--10--10--|--10--10--10--10--8--8--8--8-8-|
---8---8---8---8---8---8---8---8--|---8---8---8---8--6--6--6--6-6-|
   E   E   E   E   E   E   E   E      E   E   E   E   E   E   E   E   
----------------------------------|----------------------------------|
----------------------------------|----------------------------------|
----------------------------------|----------------------------------|
--10--10--10--10--10--10--10--10--|--10--10--10--10--10--10--10--10--|
--10--10--10--10--10--10--10--10--|--10--10--10--10--10--10--10--10--|
---8---8---8---8---8---8---8---8--|---8---8---8---8---8---8---8---8--|
  E  E  E  E  E  E  E  E     E  E  E  E  E  E  E  E   
--------------------------|--------------------------|
--------------------------|--------------------------|
--------------------------|--------------------------|
--8--8--8--8--8--8--8--8--|--3--3--3--3--3--3--3--3--|
--8--8--8--8--8--8--8--8--|--3--3--3--3--3--3--3--3--|
--6--6--6--6--6--6--6--6--|--1--1--1--1--1--1--1--1--|
   E   E   E   E   E   E   E   E      E   E   E   E   E   S  S  E   S 
S  
----------------------------------|--------------------------------------|
----------------------------------|--------------------------------------|
----------------------------------|--------------------------------------|
--10--10--10--10--10--10--10--10--|--10--10--10--10--10--10-10-10--10-10-|
--10--10--10--10--10--10--10--10--|--10--10--10--10--10--10-10-10--10-10-|
---8---8---8---8---8---8---8---8--|---8---8---8---8---8---8--8--8---8--8-|
     Q    Q    H           Q    E   E    H            Q     Q    H    
    
|-----------------------|-------------------------|-----------------------|
|-----------------------|-------------------------|-----------------------|
|*-------------8--------|-------8-------10--------|--------------8--------|
|*--10---------8--------|-------8-------10--------|--10----10----8--------|
|---10------------------|----------------8--------|--10----10-------------|
|----8------------------|----------(8)------------|---8-----8-------------|
  E  E  E  E   H            E  E   E  E  H           E  E  E  E   H   
     
------------------------|-------------------------|------------------------|
------------------------|-------------------------|------------------------|
--L-----8-----10--------|----------------8--------|--L-----8-----10--------|
--L-----8-----10--------|--10------------8--------|--L-----8-----10--------|
---------------8--------|--10-----10--------------|---------------8--------|
-----8-----8------------|---8--8---8--8-----------|-----8-----8------------|
   E  E   E  E  H           E   E  E   E  Q.     E      Q     Q     H 
       
-------------------------|--------------------------|------------------------|
-------------------------|--------------------------|--11----10-----L--------|
----------------8--------|---------8----------------|--10----10-----L--------|
--10------------8--------|-----10--8--10--3------3--|--10----10-----L--------|
--10-----10--------------|-----10--6--10--3------3--|---8-----8-----L--------|
---8--8---8--8-----------|------8------8--1------1--|------------------------|
   E   E   E   E    H            Q     Q     H         
-----------------------------|------------------------|
---L-------------------------|--11----10-----L--------|
---L-------------------------|--10----10-----L--------|
---L-------------------------|--10----10-----L--------|
---L--10--10--10--8--------|---8-----8-----L--------|
-------8---------------------|------------------------|
  E   E  E   E  H           W                   W                 
-------------------------|-------------------|-------------------|
-------------------------|-------------------|-------------------|
---------8---------------|-------------------|-------------------|
-----10--8--10--3--------|-------------------|-------------------|
-----10--6--10--3--------|-------------------|-------------------|
------8------8--1--------|-------------------|-------------------|
  W                   W                      E   E   E   E   E   E   E
  E   
-------------------|--------------------||----------------------------------|
-------------------|--------------------||----------------------------------|
-------------------|-------------------*||--10--10--10--10--10--10--10--10--|
-------------------|-------------------*||--10--10--10--10--10--10--10--10--|
-------------------|--------------------||---8---8---8---8---8---8---8---8--|
-------------------|--------------------||----------------------------------|
   E   E   E   E   E   E   E   E      E   E   E   E   E   E   E   E   
----------------------------------|----------------------------------|
----------------------------------|----------------------------------|
--10--10--10--10--10--10--10--10--|--10--10--10--10--10--10--10--10--|
--10--10--10--10--10--10--10--10--|--10--10--10--10--10--10--10--10--|
---8---8---8---8---8---8---8---8--|---8---8---8---8---8---8---8---8--|
----------------------------------|----------------------------------|
   E   E   E   E   E   E   E   E      E   E   E   E   E   E   E   E   
----------------------------------|----------------------------------|
----------------------------------|----------------------------------|
--10--10--10--10--10--10--10--10--|----------------------------------|
--10--10--10--10--10--10--10--10--|--10--10--10--10--10--10--10--10--|
---8---8---8---8---8---8---8---8--|--10--10--10--10--10--10--10--10--|
----------------------------------|---8---8---8---8---8---8---8---8--|
   E   E   E   E   E   S  S  E   S  S     E   E   E   E   E   E   E  
E   
--------------------------------------|----------------------------------|
--------------------------------------|----------------------------------|
--------------------------------------|----------------------------------|
--10--10--10--10--10--10-10-10--10-10-|--10--10--10--10--10--10--10--10--|
--10--10--10--10--10--10-10-10--10-10-|--10--10--10--10--10--10--10--10--|
---8---8---8---8---8---8--8--8---8--8-|---8---8---8---8---8---8---8---8--|
   E   E   E   S  S  E   S  S  E   S  S     E   E   E   E   E   E   E 
 E   
----------------------------------------|----------------------------------|
----------------------------------------|----------------------------------|
----------------------------------------|--10--10--10--10--10--10--10--10--|
--10--10--10--10-10-10--10-10-10--10-10-|--10--10--10--10--10--10--10--10--|
--10--10--10--10-10-10--10-10-10--10-10-|---8---8---8---8---8---8---8---8--|
---8---8---8---8--8--8---8--8--8---8--8-|----------------------------------|
   E   E   E   E   E   E   E   E      E   E   E   E   E   E   E   E   
----------------------------------|----------------------------------|
----------------------------------|----------------------------------|
--10--10--10--10--10--10--10--10--|--10--10--10--10--10--10--10--10--|
--10--10--10--10--10--10--10--10--|--10--10--10--10--10--10--10--10--|
---8---8---8---8---8---8---8---8--|---8---8---8---8---8---8---8---8--|
----------------------------------|----------------------------------|
   E   E   E   E   E   E   E   E      E   E   E   E   E   E   E   E   
----------------------------------|----------------------------------|
----------------------------------|----------------------------------|
--10--10--10--10--10--10--10--10--|----------------------------------|
--10--10--10--10--10--10--10--10--|--10--10--10--10--10--10--10--10--|
---8---8---8---8---8---8---8---8--|--10--10--10--10--10--10--10--10--|
----------------------------------|---8---8---8---8---8---8---8---8--|
   E   E   E   E   E   S  S  E   S  S     E   E   E   E   E   E   E  
E   
--------------------------------------|----------------------------------|
--------------------------------------|----------------------------------|
--------------------------------------|----------------------------------|
--10--10--10--10--10--10-10-10--10-10-|--10--10--10--10--10--10--10--10--|
--10--10--10--10--10--10-10-10--10-10-|--10--10--10--10--10--10--10--10--|
---8---8---8---8---8---8--8--8---8--8-|---8---8---8---8---8---8---8---8--|
   E   E   E   S  S  E   S  S  E   S  S    E  E  E  E  E  E  E  E   
----------------------------------------|--------------------------|
----------------------------------------|--------------------------|
----------------------------------------|--------------------------|
--10--10--10--10-10-10--10-10-10--10-10-|--5--5--5--5--5--5--5--5--|
--10--10--10--10-10-10--10-10-10--10-10-|--5--5--5--5--5--5--5--5--|
---8---8---8---8--8--8---8--8--8---8--8-|--3--3--3--3--3--3--3--3--|
  W                   W                   W                 
-------------------|-------------------|-------------------|
-------------------|-------------------|-------------------|
-------------------|-------------------|-------------------|
--L----------------|-------------------|-------------------|
--L----------------|-------------------|-------------------|
--L----------------|-------------------|-------------------|
   Q    Q    H           Q    E   E    H            Q     Q    H      
  
----------------------|-------------------------|-----------------------|
----------------------|-------------------------|-----------------------|
-------------8--------|-------8-------10--------|--------------8--------|
--10---------8--------|-------8-------10--------|--10----10----8--------|
--10------------------|----------------8--------|--10----10-------------|
---8------------------|----------(8)------------|---8-----8-------------|
  E  E  E  E   H            E  E   E  E  H           E  E  E  E   H   
     
------------------------|-------------------------|------------------------|
------------------------|-------------------------|------------------------|
--L-----8-----10--------|----------------8--------|--L-----8-----10--------|
--L-----8-----10--------|--10------------8--------|--L-----8-----10--------|
---------------8--------|--10-----10--------------|---------------8--------|
-----8-----8------------|---8--8---8--8-----------|-----8-----8------------|
   E  E   E  E  H           E   E  E   E  Q.     E      Q     Q     H 
       
-------------------------|--------------------------|------------------------|
-------------------------|--------------------------|--11----10-----L--------|
----------------8--------|---------8----------------|--10----10-----L--------|
--10------------8--------|-----10--8--10--3------3--|--10----10-----L--------|
--10-----10--------------|-----10--6--10--3------3--|---8-----8-----L--------|
---8--8---8--8-----------|------8------8--1------1--|------------------------|
   E   E   E   E    H            Q     Q     H         
-----------------------------|------------------------|
---L-------------------------|--11----10-----L--------|
---L-------------------------|--10----10-----L--------|
---L-------------------------|--10----10-----L--------|
---L--10--10--10--8--------|---8-----8-----L--------|
-------8---------------------|------------------------|
  E   E  E   E  H           W                   W                 
-------------------------|-------------------|-------------------|
-------------------------|-------------------|-------------------|
---------8---------------|-------------------|-------------------|
-----10--8--10--3--------|-------------------|-------------------|
-----10--6--10--3--------|-------------------|-------------------|
------8------8--1--------|-------------------|-------------------|
                 >                          >         >    
  E   E   E   E  H           E   E   E   E  E  S S E  S S  
--------------------------|-------------------------------|
--------------------------|-------------------------------|
-----------------8--------|-----------------8--8-8-8--8-8-|
-----10--10--10--8--------|-----10--10--10--8--8-8-8--8-8-|
-----10--10--10--6--------|-----10--10--10--6--6-6-6--6-6-|
--8-----------------------|--8----------------------------|
   >           >                                                   
   E   E   E   E   E   E   E   E      E   E   E   E  E  E  E  S S  
----------------------------------|-------------------------------|
----------------------------------|-------------------------------|
----------------------------------|-------------------------------|
--10--10--10--10--10--10--10--10--|--10--10--10--10--8--8--8--8-8-|
--10--10--10--10--10--10--10--10--|--10--10--10--10--8--8--8--8-8-|
---8---8---8---8---8---8---8---8--|---8---8---8---8--6--6--6--6-6-|
   E   E   E   E   E   E   E   E      E   E   E   E   E   E   E   E   
----------------------------------|----------------------------------|
----------------------------------|----------------------------------|
----------------------------------|----------------------------------|
--10--10--10--10--10--10--10--10--|--10--10--10--10--10--10--10--10--|
--10--10--10--10--10--10--10--10--|--10--10--10--10--10--10--10--10--|
---8---8---8---8---8---8---8---8--|---8---8---8---8---8---8---8---8--|
  E  E  E  E  E  E  E  E     E  E  E  E  E  E  E  E   
--------------------------|--------------------------|
--------------------------|--------------------------|
--------------------------|--------------------------|
--8--8--8--8--8--8--8--8--|--3--3--3--3--3--3--3--3--|
--8--8--8--8--8--8--8--8--|--3--3--3--3--3--3--3--3--|
--6--6--6--6--6--6--6--6--|--1--1--1--1--1--1--1--1--|
   E   E   E   E   E   E   E   E      E   E   E   E   E   S  S  E   S 
S  
----------------------------------|--------------------------------------|
----------------------------------|--------------------------------------|
----------------------------------|--------------------------------------|
--10--10--10--10--10--10--10--10--|--10--10--10--10--10--10-10-10--10-10-|
--10--10--10--10--10--10--10--10--|--10--10--10--10--10--10-10-10--10-10-|
---8---8---8---8---8---8---8---8--|---8---8---8---8---8---8--8--8---8--8-|
   >           >                                                   
   E   E   E   E   E   E   E   E      E   E   E   E  E  E  E  S S  
----------------------------------|-------------------------------|
----------------------------------|-------------------------------|
----------------------------------|-------------------------------|
--10--10--10--10--10--10--10--10--|--10--10--10--10--8--8--8--8-8-|
--10--10--10--10--10--10--10--10--|--10--10--10--10--8--8--8--8-8-|
---8---8---8---8---8---8---8---8--|---8---8---8---8--6--6--6--6-6-|
   E   E   E   E   E   E   E   E      E   E   E   E   E   E   E   E   
----------------------------------|----------------------------------|
----------------------------------|----------------------------------|
----------------------------------|----------------------------------|
--10--10--10--10--10--10--10--10--|--10--10--10--10--10--10--10--10--|
--10--10--10--10--10--10--10--10--|--10--10--10--10--10--10--10--10--|
---8---8---8---8---8---8---8---8--|---8---8---8---8---8---8---8---8--|
  E  E  E  E  E  E  E  E     E  E  E  E  E  E  E  E   
--------------------------|--------------------------|
--------------------------|--------------------------|
--------------------------|--------------------------|
--8--8--8--8--8--8--8--8--|--3--3--3--3--3--3--3--3--|
--8--8--8--8--8--8--8--8--|--3--3--3--3--3--3--3--3--|
--6--6--6--6--6--6--6--6--|--1--1--1--1--1--1--1--1--|
   E   E   E   E   E   E   E   E      E   E   E   E   E   S  S  E   S 
S  
----------------------------------|--------------------------------------|
----------------------------------|--------------------------------------|
----------------------------------|--------------------------------------|
--10--10--10--10--10--10--10--10--|--10--10--10--10--10--10-10-10--10-10-|
--10--10--10--10--10--10--10--10--|--10--10--10--10--10--10-10-10--10-10-|
---8---8---8---8---8---8---8---8--|---8---8---8---8---8---8--8--8---8--8-|
     >  >     >  >              >  >     >  >         
  E  E  E  E  E  E  E  E     E  E  E  E  E  E  E  E   
--------------------------|--------------------------|
--------------------------|--------------------------|
--------------------------|--------------------------|
--3--3--3--3--3--3--3--3--|--3--3--3--3--3--3--3--3--|
--3--3--3--3--3--3--3--3--|--3--3--3--3--3--3--3--3--|
--1--1--1--1--1--1--1--1--|--1--1--1--1--1--1--1--1--|
     >  >     >  >              >  >     >  >         
  E  E  E  E  E  E  E  E     E  E  E  E  E  E  E  E   
--------------------------|--------------------------|
--------------------------|--------------------------|
--------------------------|--------------------------|
--3--3--3--3--3--3--3--3--|--3--3--3--3--3--3--3--3--|
--3--3--3--3--3--3--3--3--|--3--3--3--3--3--3--3--3--|
--1--1--1--1--1--1--1--1--|--1--1--1--1--1--1--1--1--|
       >   >       >   >                  >   >       >   >           
   E   E   E   E   E   E   E   E      E   E   E   E   E   E   E   E   
----------------------------------|----------------------------------|
----------------------------------|----------------------------------|
----------------------------------|----------------------------------|
--10--10--10--10--10--10--10--10--|--10--10--10--10--10--10--10--10--|
--10--10--10--10--10--10--10--10--|--10--10--10--10--10--10--10--10--|
---8---8---8---8---8---8---8---8--|---8---8---8---8---8---8---8---8--|
       >   >       >   >                  >   >       >   >           
   E   E   E   E   E   E   E   E      E   E   E   E   E   E   E   E   
----------------------------------|----------------------------------|
----------------------------------|----------------------------------|
----------------------------------|----------------------------------|
--10--10--10--10--10--10--10--10--|--10--10--10--10--10--10--10--10--|
--10--10--10--10--10--10--10--10--|--10--10--10--10--10--10--10--10--|
---8---8---8---8---8---8---8---8--|---8---8---8---8---8---8---8---8--|
     >  >     >  >              >  >     >  >         
  E  E  E  E  E  E  E  E     E  E  E  E  E  E  E  E   
--------------------------|--------------------------|
--------------------------|--------------------------|
--------------------------|--------------------------|
--3--3--3--3--3--3--3--3--|--3--3--3--3--3--3--3--3--|
--3--3--3--3--3--3--3--3--|--3--3--3--3--3--3--3--3--|
--1--1--1--1--1--1--1--1--|--1--1--1--1--1--1--1--1--|
     >  >     >  >              >  >     >  >         
  E  E  E  E  E  E  E  E     E  E  E  E  E  E  E  E   
--------------------------|--------------------------|
--------------------------|--------------------------|
--------------------------|--------------------------|
--3--3--3--3--3--3--3--3--|--3--3--3--3--3--3--3--3--|
--3--3--3--3--3--3--3--3--|--3--3--3--3--3--3--3--3--|
--1--1--1--1--1--1--1--1--|--1--1--1--1--1--1--1--1--|
       >   >       >   >                  >   >       >   >           
   E   E   E   E   E   E   E   E      E   E   E   E   E   E   E   E   
----------------------------------|----------------------------------|
----------------------------------|----------------------------------|
----------------------------------|----------------------------------|
--10--10--10--10--10--10--10--10--|--10--10--10--10--10--10--10--10--|
--10--10--10--10--10--10--10--10--|--10--10--10--10--10--10--10--10--|
---8---8---8---8---8---8---8---8--|---8---8---8---8---8---8---8---8--|
       >   >       >   >                  >   >       >   >           
   E   E   E   E   E   E   E   E      E   E   E   E   E   E   E   E   
----------------------------------|----------------------------------|
----------------------------------|----------------------------------|
----------------------------------|----------------------------------|
--10--10--10--10--10--10--10--10--|--10--10--10--10--10--10--10--10--|
--10--10--10--10--10--10--10--10--|--10--10--10--10--10--10--10--10--|
---8---8---8---8---8---8---8---8--|---8---8---8---8---8---8---8---8--|
     >  >     >  >              >  >     >  >         
  E  E  E  E  E  E  E  E     E  E  E  E  E  E  E  E   
--------------------------|--------------------------|
--------------------------|--------------------------|
--------------------------|--------------------------|
--3--3--3--3--3--3--3--3--|--3--3--3--3--3--3--3--3--|
--3--3--3--3--3--3--3--3--|--3--3--3--3--3--3--3--3--|
--1--1--1--1--1--1--1--1--|--1--1--1--1--1--1--1--1--|
     >  >     >  >              >  >     >  >         
  E  E  E  E  E  E  E  E     E  E  E  E  E  E  E  E   
--------------------------|--------------------------|
--------------------------|--------------------------|
--------------------------|--------------------------|
--3--3--3--3--3--3--3--3--|--3--3--3--3--3--3--3--3--|
--3--3--3--3--3--3--3--3--|--3--3--3--3--3--3--3--3--|
--1--1--1--1--1--1--1--1--|--1--1--1--1--1--1--1--1--|
       >   >       >   >                  >   >       >   >           
   E   E   E   E   E   E   E   E      E   E   E   E   E   E   E   E   
----------------------------------|----------------------------------|
----------------------------------|----------------------------------|
----------------------------------|----------------------------------|
--10--10--10--10--10--10--10--10--|--10--10--10--10--10--10--10--10--|
--10--10--10--10--10--10--10--10--|--10--10--10--10--10--10--10--10--|
---8---8---8---8---8---8---8---8--|---8---8---8---8---8---8---8---8--|
       >   >       >   >            
   E   E   E   E   E   E   E   E    
----------------------------------||
----------------------------------||
----------------------------------||
--10--10--10--10--10--10--10--10--||
--10--10--10--10--10--10--10--10--||
---8---8---8---8---8---8---8---8--||




Lead Guitar

      >                                                     >       
      Q       Q     S     S  E   E   E      Q.      E    E  Q.      
E||-------------------------11---L------|--------------------------|
B||--11pbr----8-------------11---L------|--------------------------|
G||----------------10pbr--L--8---L------|-------------------8------|
D||---------------------------------10--|---L~--------------8------|
A||-------------------------------------|-----------8h--10---------|
E||-------------------------------------|--------------------------|
   >                                                              
   Q       Q     S     S  E   E   E      H          E  E   Q      
-------------------------11---L------|---------------------------|
--11pbr----8-------------11---L------|---------------------------|
----------------10pbr--L--8---L------|---------------------------|
---------------------------------10--|---L~---------L------------|
-------------------------------------|--------------------13----|
-------------------------------------|-----------------0---------|
   >                                                       >       
   Q       Q     S     S  E   E     E      Q.      E    E  Q.      
-------------------------11---L--------|--------------------------|
--11pbr----8-------------11---L--------|--------------------------|
----------------10pbr--L--8---L--------|-------------------8------|
---------------------------------10--|---L~--------------8------|
---------------------------------------|-----------8h--10---------|
---------------------------------------|--------------------------|
   >                                                                
   Q         Q     S     S  E   E   E      H          E  E   Q      
---------------------------11---L------|---------------------------|
--11pbr----8-------------11---L------|---------------------------|
------------------10pbr--L--8---L------|---------------------------|
-----------------------------------10--|---L~---------L------------|
---------------------------------------|--------------------13----|
---------------------------------------|-----------------0---------|
   >                                                               
   Q       Q     S     S  E   E   E       Q.     E    E  E  E  E   
-------------------------11---L-------|---------------------------|
--11pbr----8-------------11---L-------|------------------8--8--8--|
----------------10pbr--L--8---L-------|------------------8--------|
---------------------------------10~--|---L------8----L-----------|
--------------------------------------|----------8h--10-----------|
--------------------------------------|---------------------------|
   >                                                                  

   Q         Q     S     S  E   E   E      H          E   S  S  Q     

---------------------------11---L------|------------------------------|
--11pbr----8-------------11---L------|------------------------------|
------------------10pbr--L--8---L------|------------------------------|
-----------------------------------10--|---L~---------L--10-10--------|
---------------------------------------|-----------------------13----|
---------------------------------------|------------------------------|
   >                       SH                                     
   Q       Q     S     S   E  E   E      Q.     E    E  E  E  E   
-------------------------------------|---------------------------|
--11pbr----8-------------------------|---------------------------|
----------------10pbr--L-8--L------|------------------8--8--8--|
---------------------------------10--|---L------8----L--8--------|
-------------------------------------|----------8h--10-----------|
-------------------------------------|---------------------------|
   >                         SH                                       

   Q         Q     S     S   E  E   E       H         E   S  S  Q     

----------------------------------------|-----------------------------|
--11pbr----8--------------------------|-----------------------------|
------------------10pbr--L-8--L-------|-----------------------------|
-----------------------------------10~--|---L---------L--10-10--------|
----------------------------------------|----------------------13----|
----------------------------------------|-----------------------------|
    W                   W                   W                 
|--------------------|-------------------|-------------------|
|--------------------|-------------------|-------------------|
|*-------------------|-------------------|-------------------|
|*-------------------|-------------------|-------------------|
|--------------------|-------------------|-------------------|
|--------------------|-------------------|-------------------|
  W                   W                   W                   W       
         
-------------------|-------------------|-------------------|-------------------|
-------------------|-------------------|-------------------|-------------------|
-------------------|-------------------|-------------------|-------------------|
-------------------|-------------------|-------------------|-------------------|
-------------------|-------------------|-------------------|-------------------|
-------------------|-------------------|-------------------|-------------------|
  E    E  Q    H             Q     Q     H         
-------------------------|------------------------|
-------------------------|--11----10-----L--------|
-------------------------|--10----10-----L--------|
-------------------------|--10----10-----L--------|
-----3--L----L~--------|---8-----8-----L--------|
-------------------------|------------------------|
   E   E   E   E    H            Q     Q     H         
-----------------------------|------------------------|
---L-------------------------|--11----10-----L--------|
---L-------------------------|--10----10-----L--------|
---L-------------------------|--10----10-----L--------|
---L--10--10--10--8--------|---8-----8-----L--------|
-------8---------------------|------------------------|
   E   E  E   E     H            E  E  E  E  E  E  E  E     H.        
  E  E   
------------------------------|--------------------------|---------------------|
---L--------------------------|--------------------------|---------------------|
---L--------------------------|-----------3--3--3--3-----|--3------------L-----|
---L--------------------------|-----------3--3--3--3-----|--3------------L-----|
---L--10-----10--10~--------|-----------------------5--|--5------------L-----|
-------8--8-------------------|--3--3--3--------------3--|--3------------L--8--|
   E   E  E  E  E  E  E  E      E  E   E  E  E  E  E  E     
----------------------------|-----------------------------||
----------------------------|-----------------------------||
----------------8-----------|----------------------------*||
--10------------8-----------|--10------------8--8--8--8--*||
--10--10--------------------|---7-----10-----6--6--6--6---||
---8---8--8--8-----8--8--8--|------8---8--8---------------||
   W                        E      E  E   E    E  E  E   E    
----------------------|------------------------------8-------|
--11b~----------------|--11pbr---L--8-----------8-----11b--|
----------------------|------------------10b---L-------------|
----------------------|--------------------------------------|
----------------------|--------------------------------------|
----------------------|--------------------------------------|
   W                    E   E  E   E    E  E   E    S  S     W        
         
---------------------|--8--------------------------------|---------------------|
---L~----------------|-----11--8-----------8--(8)--------|---------------------|
---------------------|------------10b---L----------------|---------------------|
---------------------|-----------------------------10-10-|---L~----------------|
---------------------|-----------------------------------|---------------------|
---------------------|-----------------------------------|---------------------|
   E    E   E  E     E  E   E    E     H         E   E  E  E   
------------------------------------|-------------------------|
------------------------------------|-------------------------|
------------------------------------|-------------------------|
---L--8------8--------------------|-------------------------|
-----------10-----10g8--6b----------|----------------------3--|
----------------------------8--8--|--L~--------Ls--3--6-----|
  E  E  Q    E  S   S E   E       W                  
----------------------8-------|---------------------|
-------------------------11b--|---L~----------------|
------------------------------|---------------------|
------------------------------|---------------------|
--6--6----------8s-10---------|---------------------|
--------8----L----------------|---------------------|
  E   E  E   E    E  E  E   E       W                  
--8---------------------8-------|---------------------|
-----11--8-----------8-----11b--|---L~----------------|
------------10b---L-------------|---------------------|
--------------------------------|---------------------|
--------------------------------|---------------------|
--------------------------------|---------------------|
  E   E  E     S     S  E    E   E     E      W                  
--8---------------------------------------|---------------------|
-----11--8--------------------------------|---------------------|
------------10pbr--L--L--8------------|---------------------|
--------------------------------10--10--|---L~----------------|
------------------------------------------|---------------------|
------------------------------------------|---------------------|
   E  E    E  E     E  E    E    E     H.            E    E    
------------------------------------|-------------------------|
------------------------------------|-------------------------|
------------------------------------|-------------------------|
---L----------8---------------------|-------------------------|
------8h--10-----10g8--8------------|-------------------------|
--------------------------8--8--|--L~------------Ls--(0)--|
  E    E    E    E    E    E  Q        Q.     E  E  E  E  E   
------------------------------------|------------------------|
------------------------------------|------------------------|
------------------------------------|---------3--3--3--3--3--|
------------------------------------|---------3--3--3--3--3--|
-----3--3--1--3--3--1b----|------------------------|
------------------------------------|--3---------------------|
  W                   E   E   Q    H           W                 
-------------------|------------------------|-------------------|
-------------------|------------------------|-------------------|
--L----------------|--L---------------------|-------------------|
--L----------------|--L---------------------|-------------------|
-------------------|------------------------|-------------------|
-------------------|-----(3)----------------|-------------------|
  W                   W                   W                   W       
         
-------------------|-------------------|-------------------|-------------------|
-------------------|-------------------|-------------------|-------------------|
-------------------|-------------------|-------------------|-------------------|
-------------------|-------------------|-------------------|-------------------|
-------------------|-------------------|-------------------|-------------------|
-------------------|-------------------|-------------------|-------------------|
  W                   W                   W                 
-------------------|-------------------|-------------------|
-------------------|-------------------|-------------------|
-------------------|-------------------|-------------------|
-------------------|-------------------|-------------------|
-------------------|-------------------|-------------------|
-------------------|-------------------|-------------------|
  E    E  Q    H             Q     Q     H         
-------------------------|------------------------|
-------------------------|--11----10-----L--------|
-------------------------|--10----10-----L--------|
-------------------------|--10----10-----L--------|
-----3--L----L~--------|---8-----8-----L--------|
-------------------------|------------------------|
   E   E   E   E    H            Q     Q     H         
-----------------------------|------------------------|
---L-------------------------|--11----10-----L--------|
---L-------------------------|--10----10-----L--------|
---L-------------------------|--10----10-----L--------|
---L--10--10--10--8--------|---8-----8-----L--------|
-------8---------------------|------------------------|
   E   E  E   E     H            E  E  E  E  E  E  E  E     W         
       
------------------------------|--------------------------|-------------------|
---L--------------------------|--------------------------|-------------------|
---L--------------------------|-----------3--3--3--3-----|-------------------|
---L--------------------------|-----------3--3--3--3-----|-------------------|
---L--10-----10--10~--------|-----------------------5--|-------------------|
-------8--8-------------------|--3--3--3--------------3--|-------------------|
  E  Q.     Q    E  E     Q    E  E   Q    E  E   
-----------------------|-------------------------|
-----------------------|-------------------------|
-----------------------|-------------------------|
-----------------------|-------------------------|
-----3------3----1-----|--3----3--3~--L----1--3--|
--------------------3--|-------------------------|
   >                                                               
   Q       Q     S     S  E   E   E       Q.     E    E  E  E  E   
-------------------------11---L-------|---------------------------|
--11pbr----8-------------11---L-------|------------------8--8--8--|
----------------10pbr--L--8---L-------|------------------8--------|
---------------------------------10~--|---L------8----L-----------|
--------------------------------------|----------8h--10-----------|
--------------------------------------|---------------------------|
   >                                                                  

   Q         Q     S     S  E   E   E      H          E   S  S  Q     

---------------------------11---L------|------------------------------|
--11pbr----8-------------11---L------|------------------------------|
------------------10pbr--L--8---L------|------------------------------|
-----------------------------------10--|---L~---------L--10-10--------|
---------------------------------------|-----------------------13----|
---------------------------------------|------------------------------|
   >                       SH                                     
   Q       Q     S     S   E  E   E      Q.     E    E  E  E  E   
-------------------------------------|---------------------------|
--11pbr----8-------------------------|---------------------------|
----------------10pbr--L-8--L------|------------------8--8--8--|
---------------------------------10--|---L------8----L--8--------|
-------------------------------------|----------8h--10-----------|
-------------------------------------|---------------------------|
   >                         SH                                       

   Q         Q     S     S   E  E   E       H         E   S  S  Q     

----------------------------------------|-----------------------------|
--11pbr----8--------------------------|-----------------------------|
------------------10pbr--L-8--L-------|-----------------------------|
-----------------------------------10~--|---L---------L--10-10--------|
----------------------------------------|----------------------13----|
----------------------------------------|-----------------------------|
   >                                                               
   Q       Q     S     S  E   E   E       Q.     E    E  E  E  E   
-------------------------11---L-------|---------------------------|
--11pbr----8-------------11---L-------|------------------8--8--8--|
----------------10pbr--L--8---L-------|------------------8--------|
---------------------------------10~--|---L------8----L-----------|
--------------------------------------|----------8h--10-----------|
--------------------------------------|---------------------------|
   >                                                                  

   Q         Q     S     S  E   E   E      H          E   S  S  Q     

---------------------------11---L------|------------------------------|
--11pbr----8-------------11---L------|------------------------------|
------------------10pbr--L--8---L------|------------------------------|
-----------------------------------10--|---L~---------L--10-10--------|
---------------------------------------|-----------------------13----|
---------------------------------------|------------------------------|
   >                       SH                                     
   Q       Q     S     S   E  E   E      Q.     E    E  E  E  E   
-------------------------------------|---------------------------|
--11pbr----8-------------------------|---------------------------|
----------------10pbr--L-8--L------|------------------8--8--8--|
---------------------------------10--|---L------8----L--8--------|
-------------------------------------|----------8h--10-----------|
-------------------------------------|---------------------------|
   >                         SH                                       

   Q         Q     S     S   E  E   E       H         E   S  S  Q     

----------------------------------------|-----------------------------|
--11pbr----8--------------------------|-----------------------------|
------------------10pbr--L-8--L-------|-----------------------------|
-----------------------------------10~--|---L---------L--10-10--------|
----------------------------------------|----------------------13----|
----------------------------------------|-----------------------------|
   W                    E   E    E   E    E  E  E   E       W         
       
---------------------|--8-----------------------8-------|--------------------|
--11b----------------|-----11--8-----------8--L--11b--|---L----------------|
---------------------|--------------10b---L-------------|--------------------|
---------------------|----------------------------------|--------------------|
---------------------|----------------------------------|--------------------|
---------------------|----------------------------------|--------------------|
  E   E  E   S     S  E    E   E   E      H.             E   E   
--8-----------------------------------|-------------------------|
-----11--8----------------------------|-------------------------|
------------10pbr--L--L--8----------|-------------------------|
------------------------------10--10--|---L~-------------L--10--|
--------------------------------------|-------------------------|
--------------------------------------|-------------------------|
   E   E   E   E     Q      E   E     H.            E  S   S  
-----------------------------------|-------------------------|
-----------------------------------|-------------------------|
-----------------------------------|-------------------------|
---L--10---------------------------|-------------------------|
----------10--10--10g8----6b-----|-------------------8s-10-|
--------------------------------8--|--L~------------L--------|
   E   Q     E  E   E    Q       E   E    Q     H         
------------------------------|--8-----------------------|
------------------------------|-----11b---L-----L--------|
----------------8b--8b--------|--------------------------|
------------10----------10----|--------------------------|
---L--10----------------------|--------------------------|
------------------------------|--------------------------|
  E   E  E   E    E  E   E   E        H.            E  E   
--8---------------------10--------|-----------------------|
-----11--8-----------8------11br--|---L-------------L--8--|
------------10b---L---------------|-----------------------|
----------------------------------|-----------------------|
----------------------------------|-----------------------|
----------------------------------|-----------------------|
   >                                                            
   E  E  E   E   E  E  E   E       Q.       E   E   E   E   E   
--11--8-----11b--8-----8-------|-------------------------------|
---------8----------8-----11s--|--13~-------L--13--13---L--13--|
-------------------------------|-----------12----------12--12--|
-------------------------------|-------------------------------|
-------------------------------|-------------------------------|
-------------------------------|-------------------------------|
      E   E     E     E      S     E.    E    E    
--------------------------------------------------|
--------------------------------------------------|
--12g10--10--10--10b--10pbr--L---8b-------|
---------------------------------------------10~--|
--------------------------------------------------|
--------------------------------------------------|
   E      E   S  S  E      E  E    E   E    
-------------------------------------------|
-------------11----11----------------------|
------10g12---L-12-----12g10--8b-----------|
---L------------------------------10--10~--|
-------------------------------------------|
-------------------------------------------|
   E     E  S  S   E     E  E  E  E      E   E  E   E   E   E  E   E  

-------------------------------------|--------------------------------|
-------------------------------------|--------------------------------|
-------------------------------------|--------------------------------|
---L--------8----8-----------------|--10--10--8------10--10--8------|
------8g10----10------10g8--8--------|-------------10-------------10--|
-------------------------------8--8--|--------------------------------|
              >                                                 
   E   E   E  E  E   Q     E      E   E  E   E   E   E  E   E   
------------------------------|--------------------------------|
------------------------------|--------------------------------|
--------------8--L--10--------|--------------------------------|
--10--10----------------------|--10--10--8------10--10--8------|
----------10--------------10--|-------------10-------------10--|
------------------------------|--------------------------------|
                                                    >       >     >   
  >  
   E  E   E   E   E  E    E   E      E   S  S  S  S E    S  E   S E  
S  S  
---------------------------------|-----------------------------------------|
-----------------10--------------|------------------8b-----10-----8-----10-|
------8----------10--8b----------|---------10--L----8b-----10-----8-----10-|
--10-----10--10----------10--10--|------10-------10-----10-----10----10----|
---------------------------------|--10-------------------------------------|
---------------------------------|-----------------------------------------|
        >      >     >      >       >   
   S  S E   S  E   S E   S  S  S  S E   
---------------------------------------|
---L----8---L-10-----8-----10--L----8--|
---L----8---L-10-----8-----10--L----8--|
-----10----10-----10----10-------10----|
---------------------------------------|
---------------------------------------|
      >     >      >       >        >    
   S  E   S E   S  S  S  S E  S  S  E    
---------------------------------------||
---L-10-----8-----10--L----8--L----10--||
---L-10-----8-----10--L----8--L----10--||
---L-----10----10-------10------10-----||
---------------------------------------||
---------------------------------------||


Duration Legend
---------------
W - whole
H - half
Q - quarter
E - 8th
S - 16th
T - 32nd
X - 64th
. - note dotted
|-n-|  - n-tuplets
Tablature Legend
----------------
L - tied note
x - dead note
g - grace note
(n) - ghost note
> - accentuded note
NH - natural harmonic
AH - artificial harmonic
TH - tapped harmonic
SH - semi harmonic
PH - pitch harmonic
h - hammer on
p - pull off
b - bend
br - bendRelease
pb - preBend
pbr - preBendRelease
brb - bendReleaseBend
n/ - tremolo bar dip
n - tremolo bar dive
-/n - tremolo bar Release up
/n - tremolo bar inverted dip
/n - tremolo bar return
-n - tremolo bar Release down
S - shift slide
s - legato slide
/ -  slide into from below or out of upwards
 -  slide into from above or out of downwards
~ - vibrato
W - wide vibrato
tr - trill
TP - tremolo picking
T - tapping
S - slap
P - pop
< - fade in
^ - brush up
v - brush down

    
        

      
"Woke Up With Wood"
"Woke Up With Wood"
"Zz Top" "Woke Up With Wood" "39380752"
      
     
     Zz Top - Woke Up With Wood TabWoke Up With Wood      People who
played Zz Top - Woke Up With Wood Tab also played these songs by 
      Zz Top:
      Gimme All Your Lovin Chords, Tush Chords, Just Got Paid Tab, I
Thank You Tab, Legs Chords, A Fool For Your Stockings Chords, La
Grange Tab, I Need You Tonight Chords  
  
  
  
   
   
     
    Quick tip, so you can enjoy Woke Up With Wood Tab even more:   
    
     Try out the AutoScroller option ... It scrolls the page for you,
so you can totally focus on nailing that solo. 
       You can choose among different speeds using your mouse or your
keyboard (keys 0, 1, 2 and 3).      
Woke Up With Wood Tab!
     
Woke Up With Wood Tab, 


   Current rating: 0
   
   Rate: 
   1 
   2 
   3 
   4 
   5
  
  
  
    
  
  
  
   

   

  
  
    
    
  
  
 
 
     
      
     
     
 
 
  
  
   The chord pattern is shown here.   
  
  
  
 
 
 
 


  

 


 c4:
"http://www.yourchords.com/190373/Zz-Top/Woke-Up-With-Wood-ver-2-Tab/"
The Best Equipment Deals | Best Music Deals
Midi Mime Types SiteMap Contact Subscribe © 2014 JimmyLandStudios