Prinsesa Tab - 6 Cycle Mind

"Prinsesa"
"6 Cycle Mind"
"39380751";

     
"Prinsesa"
"Prinsesa"
 6 Cycle Mind - Prinsesa Guitar Tab
    Prinsesa Tab
    
       
    Song:Prinsesa
Artist:6 Cycle Mind

Date Tabbed: January 29, 2006
Tabbed by: Melross John C. Allado a.k.a. Evil Genius
E-mail: evil_genius100988@yahoo.com.ph

Weeeeeeeeee!!! Astig ang kantang to!!! Simple pero powerful, pwedeng
nyong mapasagot ang
nililigawan nyo hehehe... (Basta't may dala kayong shokolate at
bolaklak at tatlong
ng kapal ng mukha hehehe)

This song is dedicated sa lahat ng mga prinsesa ng ACLC Lipa Branch!
Keep voting this song!!!

Introduksyon: (CP) D - D/C# - C - G

* Hangga't maari e plucking lang o puro base lang (for guitar 2) para
wakustik na 
ang dating

Guitar 1:

e|-----------11-11/13-----------11-11/13-----------11-13-13/14-14-11-13-----|
B|-14~----14----------14~----14----------14~----14----------------------14~-|
G|-----13-----------------13-----------------13-----------------------------|
D|--------------------------------------------------------------------------|
x2
A|--------------------------------------------------------------------------|
E|--------------------------------------------------------------------------|

e|--------|
B|----14~-|
G|-13-----|
D|--------|
A|--------|
E|--------|
Bersikulo Uno: (CP) D - D/C# - C - G
                  3
* Pwede rin kayo gumawa ng sarili nyong version ng plucks sa mga verse
basta't andun ung 
notes (ung 2)

e|----------------------------3-2-3~-|       
e|----------------------------3-2-0-----|
B|---3---3----3---3----3---3--3-3-3~-|       
B|---3---3----3---3----3---3--------3---|
G|---2---2----2---2----2---2---------|       
G|---2---2----2---2----2---2------------|
D|-0---0-----------------------------| x3    
D|-0---0--------------------------------|
A|----------4---4----3---3-----------|       
A|----------4---4----3---3--------------|
E|-----------------------------------|       
E|--------------------------------------|
     .   .    .   .    .   .  . .        .   .    .   .    .   .
Nakaupo s'ya sa isang madilim na sulok
Ewan ko ba kung bakit sa libu-libong babaing nandoon
Wala pang isang minuto
Nahulog na ang loob ko sa 'yo

e|----------------------------3-2-3~-|       
e|----------------------------3-2-0---|
B|---3---3----3---3----3---3--3-3-3~-|       
B|---3---3----3---3----3---3----------|
G|---2---2----2---2----2---2---------|       
G|---2---2----2---2----2---2----------|
D|-0---0-----------------------------| x3    
D|-0---0------------------------------|
A|----------4---4----3---3-----------|       
A|----------4---4----3---3------------|
E|-----------------------------------|       
E|------------------------------------|
     .   .    .   .    .   .  . .        .   .    .   .    .   .
Gusto ko sanang marinig ang tinig mo
Umasa na rin na sana'y mahawakan ko ang palad mo
Gusto ko sanang lumapit
Kung di lang sa lalaking kayakap mo-ho o-o-oh.
Koro Uno: (CP) A - D

* Ang pinakamadaling parte. Mag-imbento na lang kayo ng sari-sarili
nyong plucks dito.

Dalhin mo ako sa iyong palasyo
Maglakad tayo sa hardin ng yong kaharian
Wala man akong pag-aari
Pangako kong habangbuhay kitang pagsisilbihan

G-Gm
e|-3~---------------|
B|-3~---5/6-5-------|
G|-4~---------7-5---|
D|-5~-------------5-|
A|-5~---------------|
E|-3~---------------|
O aking prinsesa...ahaaa

e|-----------11-11/13-----------11-11/13-----------11-13-13/14-14-11-13-----|
B|-14~----14----------14~----14----------14~----14----------------------14~-|
G|-----13-----------------13-----------------13-----------------------------|
D|--------------------------------------------------------------------------|
x2 Do 
Uno CP
A|--------------------------------------------------------------------------|
E|--------------------------------------------------------------------------|
Prinsesa... Prinsesa... Prinsesa...
Adlib: (CP) D - D/C# - C - G

* Pluck nyo lang ung CP

e|--------------------------|
B|-6-7-9-9/11-9-7-9---7p6---|
G|------------------6-----6-|
D|--------------------------|
A|--------------------------|
E|--------------------------|

e|--------------------------11-13-13/14~-|
B|-6-7-9-9/11-9-7-9---7p6----------------|
G|------------------6-----6--------------|
D|---------------------------------------|
A|---------------------------------------|
E|---------------------------------------|
Bersikulo Dos: (CP) D - D/C# - C - G

e|----------------------------3-2-3~-|       
e|----------------------------3-2-0-----|
B|---3---3----3---3----3---3--3-3-3~-|       
B|---3---3----3---3----3---3--------3---|
G|---2---2----2---2----2---2---------|       
G|---2---2----2---2----2---2------------|
D|-0---0-----------------------------| x3    
D|-0---0--------------------------------|
A|----------4---4----3---3-----------|       
A|----------4---4----3---3--------------|
E|-----------------------------------|       
E|--------------------------------------|
     .   .    .   .    .   .  . .        .   .    .   .    .   .
Di ako makatulog
Naisip ko ang ningning ng yong mata
Nasa isip kita buong umaga buong magdamag
Sana'y parati kang tanaw
O ang sakit isipin ito'y isang panaginip
Panaginip lang
Koro Dos: (CP) A - D

* Ka-Palm myuuuuuut!!!

Dalhin mo ako sa iyong palasyo
Maglakad tayo sa hardin ng yong kaharian
Wala man akong pag-aari
Pangako kong habangbuhay kitang pagsisilbihan

G-Gm
e|-3~---------------|
B|-3~---5/6-5-------|
G|-4~---------7-5---|
D|-5~-------------5-|
A|-5~---------------|
E|-3~---------------|
O aking prinsesa...ahaaa

D - D/C# - C - G (Pluck You!) x4
Prinsesa... Prinsesa... Prinsesa...
Outro:
*This is 85% sure... Yung ibang notes e invent nyo na lang. Kung
marunong sa scale mas
magaling, magaling...

e|---------------------------------------------------7-10~----7-9-10-12-7--7-9-9-11-13-14-------------|
B|---------------------------7-7-------------------7--------7-----------------------------------------|
G|-----7~--9b7---7~------7/9-----9-9-----7~----7-9-----------------------------------------9p7-----7~-|

Do Bersikulo Uno CP
A|----------------------------------------------------------------------------------------------------|
E|----------------------------------------------------------------------------------------------------|

e|-----------11-11/13-----------11-11/13-----------11-13-13/14-14-11-13-----|
B|-14~----14----------14~----14----------14~----14----------------------14~-|
G|-----13-----------------13-----------------13-----------------------------|
D|--------------------------------------------------------------------------|
x2 Do 
Uno CP
A|--------------------------------------------------------------------------|
E|--------------------------------------------------------------------------|

End with a malanding strum sa D chord
    
        

      
"Prinsesa"
"Prinsesa"
"6 Cycle Mind" "Prinsesa" "39380752"
      
     
     6 Cycle Mind - Prinsesa TabPrinsesa      People who played 6
Cycle Mind - Prinsesa Tab also played these songs by 
      6 Cycle Mind:
      Upside Down Chords, Biglaan Chords, Aaminin Chords, Prinsesa
Chords, Kasalanan Chords, I Chords, Sandalan Chords, Kung Wala Na Nga
Chords, Alapaap Chords  
  
  
  
   
   
     
    About the artist behind Prinsesa Tab:   
    
     6 Cycle Mind (or Six Cycle Mind / 6cyclemind) is a Filipino band
composed of Rhoneil "Ney" Dimaculangan on lead vocals, Ryan "Rye"
Sarmiento on rhythm guitars and backup vocals, Carlos "Chuck" Isidro
on lead guitars, Bobby "Bob" CaƱamo on bass and Tito Fortunato
"Tutti" Caringal on drums. Their music is a fusion of alternative
music and pop music.The band was named 6cyclemind even though they are
only five because they consider their manager as their sixth member.
Their manager wrote most of the band's hits.[citation needed] They
have successfully released four albums under Sony BMG Records
Philippines: Permission to Shine (2003), Panorama (2005), Home, &
Fiesta (2007).Indexed at Wikipedia.      
Prinsesa Tab!
     
Prinsesa Tab, 


   Current rating: 4.1
   
   Rate: 
   1 
   2 
   3 
   4 
   5
  
  
  
    
    
  
  
 
 
     
      
     
     
 
 
  
  
   The chord pattern is shown here.   
  
  
  
 
 
 
 


  

 


 c4: "http://www.yourchords.com/718/6-Cycle-Mind/Prinsesa-Tab/"
The Best Equipment Deals | Best Music Deals
Midi Mime Types SiteMap Contact Subscribe © 2014 JimmyLandStudios