Please Dont Go Live Tab - Mike Posner

"Please Dont Go Live"
"Mike Posner"
"39380751";

     
"Please Dont Go Live"
"Please Dont Go Live"
 Mike Posner - Please Dont Go Live Guitar Tab
    Please Dont Go Live Tab
    
       
    Chorus:
--0---0---0---0---0---0---0---0--|
--0---0---0---0---0---0---0---0--|
--0---0---0---0---0---0---0---0--|
--x---4---2---0---x---4---5---2--|
--5---2---3---2/--5---2---7---3--|
--5-----------2/--5--------------|

Bridge:
-----------------0--0-------0--0---0---0--0---0---0--0----0--|
---------0---0--0---0---0--0---0---0--0---0---0--0----0--|
---------0---0--0---0---0--0---0---0--0---0---0--0----0--|
-------------0---0--4---0---0--4---0---0--4---0---x--4/---7--|
-------------2/--5--2---2/--5--2---2/--5--2---2/--5--2/---5--|
-------------2/--5------2/--5------2/--5------2/--5----------|

Outro:
-----------------------------------------------------------|
-----------------------------------------------------------|
-----------------------------------------------------------|
----0---0---0---0---0---0---0---0---0---0---0---0---0---0--|
-----------------------------------------------------------|
--5---5---5---5---4---4---4---4---2---2---2---2---0---0----|

    
        

      
"Please Dont Go Live"
"Please Dont Go Live"
"Mike Posner" "Please Dont Go Live" "39380752"
      
     
     Mike Posner - Please Dont Go Live TabPlease Dont Go Live     
People who played Mike Posner - Please Dont Go Live Tab also played
these songs by 
      Mike Posner:
      Cooler Than Me Chords, Bow Chicka Wow Wow Chords, Please Dont Go
Chords, Another Love Song Chords, Drug Dealer Girl Chords, Cheated
Chords, Gone In September Chords  
  
  
  
   
   
     
    Quick tip, so you can enjoy Please Dont Go Live Tab even more:   
    
     YourChords.com Guitar Chords and Tabs Archive is currently
indexing over 240'000 songs from 21'000+ different artists. 
       And new chords just keep on coming in, so you will surely never
run out of them.      
Please Dont Go Live Tab!
     
Please Dont Go Live Tab, 


   Current rating: 0
   
   Rate: 
   1 
   2 
   3 
   4 
   5
  
  
  
    
    
  
  
 
  
 
 
  
  
   The chord pattern is shown here.   
  
  
  
 
 
 
 


  

 


 c4:
"http://www.yourchords.com/298109/Mike-Posner/Please-Dont-Go-Live-Tab/"
The Best Equipment Deals | Best Music Deals
Midi Mime Types SiteMap Contact Subscribe © 2014 JimmyLandStudios