Led Zeppelin III (1970)

       "Immigrant Song" "Friends" "Celebration Day" "Since I've Been Loving You" "Out on the Tiles" "Gallows Pole" "Tangerine" "That's the Way" "Bron-Y-Aur Stomp" "Hats Off to (Roy) Harper"
       
	 File: 97  Score: 6.7  against: +LED +ZEPPELIN - 'THE CRUNGE' Guitar tabs :: Complete and free!
       

	





	

document.write('(function ()
{try{VCM.media.render({sid:64322,media_id:1,media_type:5,version:"1.2"});}
catch(e){document.write(\'\');}}());');









	Guitar tabs home
		   
   			Submit tabs
		
    
    Community & forum
		
	        Community home
			Guitar forum
			Member videos
			Member photos
		    
    
	Video lessons
	Text lessons
	
	 
	
	

 


qm_create(0,false,0,250,false,false,false,false,false);




	

Guitar Tabs Explorer  » L » Led Zeppelin tabs » The
crunge (Guitar tabs)

  
    
    
(function(d, s, id) {
  var js, fjs = d.getElementsByTagName(s)[0];
  if (d.getElementById(id)) {return;}
  js = d.createElement(s); js.id = id;
  js.src = "//connect.facebook.net/en_US/all.js#xfbml=1";
  fjs.parentNode.insertBefore(js, fjs);
}(document, 'script', 'facebook-jssdk'));

  


Led Zeppelin - “The crunge“ Guitar tabs


Led Zeppelin The crunge guitar tabs. 




  
    Check it out...Join our new guitar forum & community. Click
here!
  
  
    [Guitar forum|Member images|Member videos]
  




Song: The Crunge
Artist: Led Zeppelin
Album: Houses of the Holy

Riff 1a
e|---12--12-12-14-12---12---12---12------------|
B|---12--12-12-14-12---12---12---12------------|
G|---12--12-12-14-12---12---12---12------------|
D|---------------------------------------------|
A|---------------------------------------------|
E|---------------------------------------------|

Riff 1b
e|---12--12-12-----|
B|---12--12-12-----|
G|---12--12-12-----|
D|-----------------|
A|-----------------|
E|-----------------|

Riff 2a
e|---5--5-5-xxxx-4-5-xxx-4-5-4-5--6------------|
B|---5--5-5-xxxx-4-5-xxx-4-5-4-5--6------------|
G|---5--5-5-xxxx-4-5-xxx-4-5-4-5--6------------|
D|---------------------------------------------|
A|---------------------------------------------|
E|---------------------------------------------|

Riff 2b
e|---5--5-5-xxxx-4-5-xxx-4-5-4-5--3--4--5------|
B|---5--5-5-xxxx-4-5-xxx-4-5-4-5--3--4--5------|
G|---5--5-5-xxxx-4-5-xxx-4-5-4-5--3--4--5------|
D|---------------------------------------------|
A|---------------------------------------------|
E|---------------------------------------------|

Riff 2c
e|---5--5-5-xxxx-4-5-xxx-4-5-4-5--|
B|---5--5-5-xxxx-4-5-xxx-4-5-4-5--|
G|---5--5-5-xxxx-4-5-xxx-4-5-4-5--|
D|--------------------------------|
A|--------------------------------|
E|--------------------------------|


Song Order:
 Drum Riff  x2 (0:03)
 Bass Riff  x2 (0:09)
 Riff 1a    x4 (0:13)
 Riff 2a    x1 (0:23)
 Riff 2b    x1 (0:28)
 Riff 2a    x1 (0:33)
 Riff 2b    x1 (0:37)
 Riff 2a    x1 (0:41)
 Riff 2c    x1 (0:46)
 Riff 1a    x8 (0:49)
 Riff 2a    x1 (1:08)
 Riff 2b    x1 (1:13)
 Riff 2a    x1 (1:17)
 Riff 2b    x1 (1:22)
 Riff 2a    x1 (1:26)
 Riff 2c    x1 (1:30)
 Riff 1a    x8 (1:34)
 Riff 2a    x1 (1:53)
 Riff 2b    x1 (1:57)
 Riff 2a    x1 (2:02)
 Riff 2b    x1 (2:06)
 Riff 2a    x1 (2:11)
 Riff 2c    x1 (2:15)
 Riff 1a    x23(2:19)
 Riff 1b    x1 (3:13)
Tabbed by Michael McKnight




  
    Check it out...Join our new guitar forum & community. Click
here!
  
  
    [Guitar forum|Member images|Member videos]
  




	       
	
	
    	Related Led Zeppelin tabs
		Guitarist Jimmy Page is one of the most influential and important
guitarists and songwriters of rock music. You can see his style...
		- The crunge (Chords)
- Poor tom (Ver2) (Tabs)
- Over the hills and far away live (Intro tabs)
- Dazed and confused (Chords)
- Since ive been loving you (Chords)
 
		See all Led Zeppelin guitar tabs
		
	














The Best Equipment Deals | Best Music Deals
Midi Mime Types SiteMap Contact Subscribe © 2014 JimmyLandStudios