alert black icon

       used to highlight any important items
       
	 File: 8  Score: 2.4  against: +THE +BLACK KEYS - 'JUST GOT TO BE' Guitar tabs :: Complete and free!
       

	





	

document.write('(function ()
{try{VCM.media.render({sid:64322,media_id:1,media_type:5,version:"1.2"});}
catch(e){document.write(\'\');}}());');









	Guitar tabs home
		   
   			Submit tabs
		
    
    Community & forum
		
	        Community home
			Guitar forum
			Member videos
			Member photos
		    
    
	Video lessons
	Text lessons
	
	 
	
	

 


qm_create(0,false,0,250,false,false,false,false,false);




Guitar Tabs Explorer  » B » The Black Keys tabs »
Just got to be (Guitar tabs)

  
    
    
(function(d, s, id) {
  var js, fjs = d.getElementsByTagName(s)[0];
  if (d.getElementById(id)) {return;}
  js = d.createElement(s); js.id = id;
  js.src = "//connect.facebook.net/en_US/all.js#xfbml=1";
  fjs.parentNode.insertBefore(js, fjs);
}(document, 'script', 'facebook-jssdk'));

  


The Black Keys - “Just got to be“ Guitar tabs


The Black Keys Just got to be guitar tabs. Related pages are Unknown
brother tabs, 
 Gold on the celling tabs, 
 Lonely boy (Ver2) chords, 
 Gold on the celling (Ver2) chords, 
 Gold on the celling chords. See all The Black Keys tabs. Submit
corrected and missing guitar tabs here. 




  
    Check it out...Join our new guitar forum & community. Click
here!
  
  
    [Guitar forum|Member images|Member videos]
  




-------------------------------------------------------------------------------
			     JUST GOT TO BE - BLACK KEYS
-------------------------------------------------------------------------------
Tabbed by: SEGUE

Tuning: eadgbe


Verse
e|---------------------------------------------------------------------------|
B|---------------------------------------------------------------------------|
G|--------------7~------------------------------------------7h9p7------------|
D|------------------9-------------------------------------9------9-----------|
A|----------------------7---5----5-7-7-5---------------------------7-5-------|
E|--7-7-7-7-7-7-------7---7----7---------7--7-7-7-7-7-0-7---------7-7--7^----|


Chorus
e|---------------------------------------------------------------------------|
B|---------------------------------------------------------------------------|
G|-----------------x--x--x-----x--x--x--x--x--x---------7-------xxx-xxx-xxx--|
D|---9-7-9-7-------9--9--9-----7--7--7--9--9--9----9-7-9-9------999-777-999--|
A|-----------9p8p7-7--7--7--5--5--5--5--7--7--7-----------9p8p7-777-555-777--|
E|-7---------------x--x--x-----x--x--x--x--x--x--7--------------xxx-xxx-xxx--|


Bridge
e|---------------------------------------------------------------------------|
B|---------------------------------------------------------------------------|
G|---------------------------------------------------------------------------|
D|---------------------------------------------------------------------------|
A|---------------------------------------------------------------------------|
E|7---let
ring---10---7----5----7-----10-----7-------------------------------|

solo

e|--------------------------------------------------------------7------------|
B|---------------------------------------------------------7-10---7-7-7-10-7-|
G|-----------------------------------7h9p7---------7-7-9-9-------------------|
D|---------------------7-----7-7-9-9-------9-9-9-9---------------------------|
A|-------------7-7-8-9---999-------------------------------------------------|
E|-7-7-7-10-10---------------------------------------------------------------|

Verse x4
Chorus x4
Bridge
Verse x4
Chorus x4
Bridge
Verse x4
Solo
Chorus x4

This Is The Basic Tab Of The Song There is A Little Variation In The
Fills But Its Easy To Pick Out

| h  hammer-on
| p  pull-off
| x  Mute note
===============================================================================




  
    Check it out...Join our new guitar forum & community. Click
here!
  
  
    [Guitar forum|Member images|Member videos]
  




	

	       
	

	














The Best Equipment Deals | Best Music Deals
Midi Mime Types SiteMap Contact Subscribe © 2014 JimmyLandStudios