document.write('(function ()
{try{VCM.media.render({sid:64322,media_id:1,media_type:5,version:"1.2"});}
catch(e){document.write(\'\');}}());');









	Guitar tabs home
		   
   			Submit tabs
		
    
    Community & forum
		
	        Community home
			Guitar forum
			Member videos
			Member photos
		    
    
	Video lessons
	Text lessons
	
	 
	
	

 


qm_create(0,false,0,250,false,false,false,false,false);




Guitar Tabs Explorer  » S » Frank Sinatra tabs » All
of me (Bass tabs)

  
    
    
(function(d, s, id) {
  var js, fjs = d.getElementsByTagName(s)[0];
  if (d.getElementById(id)) {return;}
  js = d.createElement(s); js.id = id;
  js.src = "//connect.facebook.net/en_US/all.js#xfbml=1";
  fjs.parentNode.insertBefore(js, fjs);
}(document, 'script', 'facebook-jssdk'));

  


Frank Sinatra - “All of me“ Bass tabs


Frank Sinatra All of me bass tabs. 




  
    Check it out...Join our new guitar forum & community. Click
here!
  
  
    [Guitar forum|Member images|Member videos]
  




frank sinatra_All Of Me

TablEdited by Jan Bjorklund   
You are welcome to request for tabs!
Fingering and positions as suggested by TablEdit, please use common
sense.


TablEdited by Jan Bjorklund
Tuning : E A D G 	Time Signature: 4/4

  |               |               |               |
|7---------------6---------5---------------4---------------------|
|----------------------------------------------------------------|
|----------------------------------------------------------------|
|----------------------------------------------------------------|

  |               |               |               |
|3---------2---------------1---------------------0---------------|
|----------------------------------------------------------4-----|
|----------------------------------------------------------------|
|----------------------------------------------------------------|

  |               |               |               |
|----------------------------------------------------------------|
|----------3---------------------2---------1---------------0-----|
|----------------------------------------------------------------|
|----------------------------------------------------------------|

  |               |               |               |
|----------------------------------------------------------------|
|----------0-----0---------------0---------------4---------3-----|
|----------------------------------------------------------------|
|--------------------------------------------2-------------------|

  |               |               |               |
|----------------------------------------------------------------|
|----------------------------------------------------------------|
|3---------------3---------------0-------------------------3-----|
|------------------------------------------------3---------------|

  |               |               |               |
|----------------------------------------------------------------|
|----------------0---------------1---------------2---------------|
|3---------------------------------------------------------3-----|
|----------------------------------------------------------------|

  |               |               |               |
|----------------------------------------------------------------|
|2---------------0-----------------------------------------2-----|
|--------------------------------3---------------2---------------|
|----------0-----------------------------------------------------|

  |               |               |               |
|----------------------------------------------------------------|
|2---------------0-----------------------------------------2-----|
|--------------------------------3---------------2---------------|
|----------------------------------------------------------------|

  |               |               |               |
|----------------------------------------------------------------|
|----------------------------------------------------------------|
|0---------------2---------------3---------------4---------0-----|
|----------------------------------------------------------------|

  |               |               |               |
|----------------------------------------------------------------|
|----------------------------------------------------------1-----|
|0---------------2---------------3---------------4---------------|
|----------------------------------------------------------------|

  |               |               |               |
|------------------------------------------------2---------------|
|0---------------2---------------3-------------------------0-----|
|----------------------------------------------------------------|
|----------------------------------------------------------------|

  |               |               |               |
|------------------------------------------------2---------------|
|0---------0-----2---------------3-------------------------0-----|
|----------------------------------------------------------------|
|----------------------------------------------------------------|

  |               |               |               |
|--------------------------------0---------------1---------------|
|2---------------4-----------------------------------------3-----|
|----------------------------------------------------------------|
|----------------------------------------------------------------|

  |               |               |               |
|--------------------------------0---------------1---------------|
|2---------------4-----------------------------------------------|
|----------------------------------------------------------1-----|
|----------------------------------------------------------------|

  |               |               |               |
|----------------------------------------------------------------|
|------------------------------------------------2---------------|
|0---------0-----2---------------3-------------------------0-----|
|----------------------------------------------------------------|

  |               |               |               |
|----------------------------------------------------------------|
|------------------------------------------------2---------1-----|
|0---------------2---------------3-------------------------------|
|----------------------------------------------------------------|

  |               |               |               |
|----------------------------------------------------------------|
|0---------------2---------------3---------------4---------0-----|
|----------------------------------------------------------------|
|----------------------------------------------------------------|

  |               |               |               |
|----------------------------------------------------------------|
|----------------------------------------------------------0-----|
|----------------3---------------2---------------0---------------|
|----------------------------------------------------------------|

  |               |               |               |
|0---------------------------------------------------------0-----|
|----------------3---------------2---------------0---------------|
|----------------------------------------------------------------|
|----------3-----------------------------------------------------|

  |               |               |               |
|----------------------------------------------------------------|
|0---------------1---------------0-----------0---4---------3-----|
|----------------------------------------------------------------|
|----------------------------------------------------------------|

  |               |               |               |
|----------------------------------------------------------------|
|----------------------------------------------------------------|
|3---------------3---------------0-------------------------3-----|
|------------------------------------------------3---------------|

  |               |               |               |
|----------------------------------------------------------------|
|----------------0---------------1---------------2---------------|
|3---------------------------------------------------------3-----|
|----------------------------------------------------------------|

  |               |               |               |
|----------------------------------------------------------------|
|2---------------0-----------------------------------------3-----|
|--------------------------------3---------------2---------------|
|----------0-----------------------------------------------------|

  |               |               |               |
|----------------------------------------------------------------|
|2---------------0-----------------------------------------2-----|
|--------------------------------3---------------2---------------|
|----------0-----------------------------------------------------|

  |               |               |               |
|--------------------------------2-------------------------------|
|----------------2-------------------------------2---------------|
|0---------------------------------------------------------1-----|
|----------------------------------------------------------------|

  |               |               |               |
|--------------------------------2-------------------------------|
|----------------2-------------------------------2---------1-----|
|0---------------------------------------------------------------|
|----------------------------------------------------------------|

  |               |               |               |
|------------------------------------------------2---------------|
|0---------------2---------------3-------------------------0-----|
|----------------------------------------------------------------|
|----------------------------------------------------------------|

  |               |               |               |
|------------------------------------------------2---------------|
|0---------------2---------------3-------------------------0-----|
|----------------------------------------------------------------|
|----------------------------------------------------------------|

  |               |               |               |
|----------------0---------------1---------------2---------0-----|
|3---------------------------------------------------------------|
|----------------------------------------------------------------|
|----------------------------------------------------------------|

  |               |               |               |
|----------------5---------------11--------------5---------------|
|4---------------------------------------------------------------|
|----------------------------------------------------------4-----|
|----------------------------------------------------------------|

  |               |               |               |
|0---------------0---------------12--------------0---------------|
|----------------------------------------------------------------|
|----------------------------------------------------------1-----|
|----------------------------------------------------------------|

  |               |               |               |
|--------------------------------2-------------------------------|
|----------------2-------------------------------2---------1-----|
|0---------------------------------------------------------------|
|----------------------------------------------------------------|

  |               |               |               |
|----------------------------------------------------------------|
|0---------------0-----------------------------------------------|
|--------------------------------4---------4-----4---------------|
|----------------------------------------------------------------|

  |               |               |               |
|0---------------------------------------------------------0-----|
|----------------3---------------2---------------0---------------|
|----------------------------------------------------------------|
|----------3-----------------------------------------------------|

  |               |               |               |
|----------------------------------------------------------------|
|--------------------------0-------------------------------0-----|
|3---------------3---------------4-----------4---4---------------|
|----------------------------------------------------------------|

  |               |               |               |
|--------------------------0-------------------------------------|
|------------0---0-------------------------------0---------------|
|----------------------------------------------------------------|
|----------------------------------------------------------------|

  |               |               |               |
|--------------------------------0-------------------------------|
|----------------------------------------------------------------|
|3---------------3-------------------------------4---------------|
|------------------------------------------3---------------------|

  |               |               |               |
|----------------------------------------------------------------|
|----------------0---------------1---------------2---------------|
|3---------------------------------------------------------3-----|
|----------------------------------------------------------------|

  |               |               |               |
|----------------------------------------------------------------|
|2---------------2-----------------------------------------------|
|--------------------------------3-----------3---2---------------|
|----------0-----------------------------------------------------|

  |               |               |               |
|----------------------------------------------------------------|
|----------------3---------------2-------------------------------|
|2---------2-------------------------------------1---------------|
|------------------------------------------0---------------------|

  |               |               |               |
|----------------------------------------------------------------|
|------------------------------------------------2---------------|
|0---------------0---------------0-------------------------------|
|------------------------------------------------------------0---|

  |               |               |               |
|----------------------------------------------------------------|
|----------------------------------------------------------1-----|
|0---------0-----------------------------------------------------|
|----------------3---------------1---------------0---------------|

  |               |               |               |
|----------------------------------------------------------------|
|0-----------0---0-------------------------------0-----------0---|
|--------------------------------0-------------------------------|
|----------------------------------------------------------------|

  |               |               |               |
|----------------------------------------------------------------|
|--------------------------------0---------0-----3---------------|
|0---------0-----0-----------------------------------------------|
|----------------------------------------------------------------|

  |               |               |               |
|----------------------------------------------------------------|
|2---------------4---------------3---------------3---------------|
|----------------------------------------------------------------|
|----------0-------------------------------1---------------------|

  |               |               |               |
|----------------------------------------------------------------|
|2---------------------------------------------------------------|
|----------------2---------------1---------------1---------------|
|----------0-----------------------------------------------------|

  |               |               |               |
|----------------------------------------------------------------|
|----------------------------------------------------------------|
|0---------------0---------1-----0---------------0---------------|
|----------------------------------------------------------------|

  |               |               |               |
|1---------------1-----------------------------------------------|
|------------------------------------------------1---------0-----|
|--------------------------1-----0---------0---------------------|
|----------------------------------------------------------------|

  |               |               |               |
|----------------------------------------------------------------|
|------------0---0-------------------------------1---------------|
|--------------------------------0-------------------------------|
|----------------------------------------------------------------|

  |               |               |               |
|7---2-------------------------------------0---------------------|
|----------0-----1---------------0-------------------------------|
|--------------------------4-------------------------------------|
|------------------------------------------------------------3---|

  |               |               |               |
|------------------------------------------------2---------------|
|0---------0-----2---------------3-------------------------0-----|
|----------------------------------------------------------------|
|----------------------------------------------------------------|

  |               |               |               |
|----------------------------------------------------------------|
|3---------------2---------------1-----------1---0---------------|
|----------------------------------------------------------------|
|----------------------------------------------------------------|

  |               |               |               |
|----------------------------------------------------------------|
|----------------------------------------------------------------|
|4---------------4---------4-----3---------------4---------------|
|----------------------------------------------------------------|

  |               |               |               |
|----------------------------------------------------------------|
|----------------------------------------------------------3-----|
|3---------3-----2---------------0-------------------------------|
|------------------------------------------------3---------------|

  |               |               |               |
|----------------------------------------------------------------|
|2---------------3---------------2---------------2---------------|
|----------------------------------------------------------------|
|------------------------------------------------------------0---|

  |               |               |               |
|----------------------------------------------------------------|
|2---------------0-----------------------------------------2-----|
|--------------------------------3---------------2---------------|
|----------------------------------------------------------------|

  |               |               |               |
|----------------------------------------------------------------|
|------------------------------------------------2---------------|
|0-----------0---0-----------0---0-----------0-------------------|
|------------------------------------------------------------0---|

  |               |               |               |
|----------------------------------------------------------------|
|------------------------------------------------1---------------|
|3---------------1---------------0---------0---------------------|
|----------------------------------------------------------------|

  |               |               |               |
|----------------------------------------------------------------|
|0-----------0---2-----------------------------------------------|
|--------------------------------1---------------0-----------0---|
|----------------------------0-----------------------------------|

  |               |               |               |
|--------------------------------0-------------------------------|
|0-----------0---0-----------------------------------------------|
|------------------------------------------------3---------------|
|----------------------------------------------------------------|

  |               |               |               |
|----------------0---------------1---------------2---------------|
|3---------------------------------------------------------3-----|
|----------------------------------------------------------------|
|----------------------------------------------------------------|

  |               |               |               |
|--------------------------------4-------------------------------|
|4-----------------------------------4---------------------------|
|----------3-----------------3-------------2-----4---------2-----|
|----------------------------------------------------------------|

  |               |               |               |
|5---0-----------------------------------------------------------|
|----------------------------------------------------------------|
|----------3-----3---------1-----2---------------2---------2-----|
|----------------------------------------------------------------|

  |               |               |               |
|----------------------------------------------------------------|
|----------------------------------------------------------0-----|
|1---------1-----1---------------0---------------0---------------|
|----------------------------------------------------------------|

  |               |               |               |
|------------------------------------------------2---------------|
|----------0-----2---------------3-------------------------0-----|
|----------------------------------------------------------------|
|----------------------------------------------------------------|

  |               |               |               |
|1-------------------------------0-------------------------------|
|----------------1-----------------------------------------------|
|------------------------------------------------4---------3-----|
|----------4-----------------------------------------------------|

  |               |               |               |
|----------------------------------------------------------------|
|----------------------------------------------------------------|
|----------------------------------------------------------------|
|----------------------------------------------------------------|

  |               |               |               |
|----------------------------------------------------------------|
|----------------------------------------------------------------|
|----------------------------------------------------------------|
|----------------------------------------------------------------|

  |               |               |               |
|----------------------------------------------------------------|
|----------------0---------------1---------------2---------------|
|3---------------------------------------------------------3-----|
|----------------------------------------------------------------|

  |               |               |               |
|----------------------------------------------------------------|
|----------------0-----------0-----------------------------------|
|3-----------3-------------------3-----------3---3-----------3---|
|----------------------------------------------------------------|

  |               |               |               |
|--------------------------------0---------------1---------------|
|2---------------4-----------------------------------------2-----|
|----------------------------------------------------------------|
|----------------------------------------------------------------|

  |               |               |               |
|----------------------------------------------------------------|
|3---------------3---------2---------------------2---------------|
|----------------------------------------------------------------|
|----------1---------------------------------0-------------------|

  |               |               |               |
|----------------------------------------------------------------|
|----------------------------------------------------------------|
|0---------------------------------------------------------0-----|
|----------------3---------------1---------------0---------------|

  |               |               |               |
|----------------------------------------------------------------|
|----------------------------------------------------------------|
|1-----------1---0-----------0---0---------------0---------------|
|----------------------------------------------------------------|

  |               |               |               |
|----------------------------------------------------------------|
|0---------------0-----------------------------------------------|
|--------------------------------0---------------0---------------|
|----------------------------------------------------------------|

  |               |               |               |
|--------------------------------0-------------------------------|
|0---------------0-----------------------------------------------|
|------------------------------------------------3---------------|
|--------------------------------------------3-------------------|

  |               |               |               |
|----------------------------------------------------------------|
|3---------------2---------------0-------------------------3-----|
|------------------------------------------------3---------------|
|----------1-----------------------------------------------------|

  |               |               |               |
|----------------------------------------------------------------|
|4---------------2---------------0-------------------------4-----|
|------------------------------------------------3---------------|
|----------2-----------------------------------------------------|

  |               |               |               |
|--------------------------------0---------------4---------------|
|2---------------4-----------------------------------------2-----|
|----------------------------------------------------------------|
|----------0-----------------------------------------------------|

  |               |               |               |
|----------------------------------------------------------------|
|----------------------------------------------------------1-----|
|0---------0-----------------------------------------------------|
|----------------3---------------1---------------0---------------|

  |               |               |               |
|--------------------------7---------1-----------1---------------|
|0---------0-----1-------------------------0---------------4-----|
|----------------------------------------------------------------|
|----------------------------------------------------------------|

  |               |               |               |
|0---------------2---------------3---------------4---------0-----|
|----------------------------------------------------------------|
|----------------------------------------------------------------|
|----------------------------------------------------------------|

  |               |               |               |
|7---------------6---------5---------------4---------------------|
|----------------------------------------------------------------|
|----------------------------------------------------------------|
|----------------------------------------------------------------|

  |               |               |               |
|3---------2---------------1---------------------0---------------|
|----------------------------------------------------------4-----|
|----------------------------------------------------------------|
|----------------------------------------------------------------|

  |               |               |               |
|----------------------------------------------------------------|
|----------3---------------------2---------1---------------0-----|
|----------------------------------------------------------------|
|----------------------------------------------------------------|

  |               |               |               |
|----------------------------------------------------------------|
|----------0-----0---------------0---------------4---------3-----|
|----------------------------------------------------------------|
|--------------------------------------------2-------------------|

  |               |               |               |
|----------------------------------------------------------------|
|----------------------------------------------------------------|
|----------------------------------------------------------------|
|----------------------------------------------------------------|

  |               |               |               |
|--------------------------0-------------------------------------|
|----------------------------------------------------------------|
|--------------------------3-------------------------------------|
|----------------------------------------------------------------|



Created with TablEdit http://www.tabledi




  
    Check it out...Join our new guitar forum & community. Click
here!
  
  
    [Guitar forum|Member images|Member videos]
  




	

	       
	

	














The Best Equipment Deals | Best Music Deals
Midi Mime Types SiteMap Contact Subscribe © 2014 JimmyLandStudios