document.write('(function ()
{try{VCM.media.render({sid:64322,media_id:1,media_type:5,version:"1.2"});}
catch(e){document.write(\'\');}}());');









	Guitar tabs home
		   
   			Submit tabs
		
    
    Community & forum
		
	        Community home
			Guitar forum
			Member videos
			Member photos
		    
    
	Video lessons
	Text lessons
	
	 
	
	

 


qm_create(0,false,0,250,false,false,false,false,false);




Guitar Tabs Explorer  » J » Judas Priest tabs »
Dying to meet you (Guitar tabs)

  
    
    
(function(d, s, id) {
  var js, fjs = d.getElementsByTagName(s)[0];
  if (d.getElementById(id)) {return;}
  js = d.createElement(s); js.id = id;
  js.src = "//connect.facebook.net/en_US/all.js#xfbml=1";
  fjs.parentNode.insertBefore(js, fjs);
}(document, 'script', 'facebook-jssdk'));

  


Judas Priest - “Dying to meet you“ Guitar tabs


Judas Priest Dying to meet you guitar tabs. Related pages are Heading
out to the highway tabs, 
 All guns blazing tabs, 
 Prelude solo tabs, 
 Fire burns below tabs, 
 Race with the devil bass tabs. See all Judas Priest tabs. Submit
corrected and missing guitar tabs here. 




  
    Check it out...Join our new guitar forum & community. Click
here!
  
  
    [Guitar forum|Member images|Member videos]
  




Judas Priest - Dying to Meet You
from "Rocka Rolla"
letostak@ix.netcom.com (Judy Letostak)
Metal Edge (619)423-4970
http://www.netcom.com/~letostak/main.htm

Lyrics are at the end of the file


Intro [A] 2x
clean tone

---------------------------------------------------------
---------------------------------------------------------
---------------------------------------------------------
---------------------------------------------------------
----------3h5-----3~------2-----0------------------------
--0--3h5-------0-------0-----0--------------------------- 


[B] With Distortion
2x
---------------------------------------------------------
---------------------------------------------------------
---------------------------------------------------------
------------------------------2--------------------------
----------3h5-----3-----2-----0--------------------------
--0--3h5-------0-----0-----0----------------------------- 


[C]

---------------------------------------------------------
---------------------------------------------------------
---------------------------------------------------------
-2----2--------------2----2-----------2~-----------------
-0----0---3--2~------0----0---3-2h3p2--------------------
--------------------------------------------------------- 


Verse (pick randomly)
4x===============
  A         D          B-   A   B-  A     A  D  A  D
------------0-------|------------------------------------
--0---------3-------|------------------------------------
--2---------2-------|------------------------------------
--2---------0-------|------------------------------------
--0-----------------|------------------------------------
--------------------|------------------------------------ 

[A] 2x clean tone
[B]
verse
verse
[A]
[B]
[C] 2x

Weird guitar sounds w/bar fade out then:

[D]
4x================================  2x=================
----------------------------------|----------------------
--------------------------2tr3----|----------------------
----------------------------------|----------------------
--2-------2-------2---------------|----------4tr5--------
--0--0-0--0--0-0--0--0-0----------|---5------------------
----------------------------------|---3------------------ 
                                   same picking pattern as A chd
2x===============================
---------------------------------------------------------
--------------------------2tr3---------------------------
---------------------------------------------------------
--2-------2-------2--------------------------------------
--0--0-0--0--0-0--0--0-0---------------------------------
--------------------------------------------------------- 


[E]

----------------------------------|---------------------|
-3b(4)-rb3p1--3b(4)-rb3p1--3b(4)--|-3b(4)-rb3p1--3--1--3|
----------------------------------|---------------------|
----------------------------------|---------------------|
----------------------------------|---------------------|
----------------------------------|---------------------| 

                                             whole thing 2x
---------------------------------------------------------
-3b(4)-rb3p1-3--1------------3p1-------------------------
-------------------2--0--2--------2--2--0--2-------------
---------------------------------------------------------
---------------------------------------------------------
--------------------------------------------------------- 

Lead
   8x
--15b(17)------12tr15------12----------------------------
-------------------------------15b(17)-etc---------------
---------------------------------------------------------
---------------------------------------------------------
---------------------------------------------------------
--------------------------------------------------------- 
A minor just blow with Amin Pentatonic scale


[D]
[E]




The Music Shop BBS (619)423-4970  (San Diego, CA  USA)
Over 8,000 Guitar Tabs, pictures, construction docs, lessons, 
interviews, Over 1000 Bass Tabs, sound files, lyrics, programs.  
Also, free support for unsigned/indie bands email me a bio, 
lyrics, pictures gig info, demo info sound files etc., 
http://www.netcom.com/~letostak/musicshp.html
===========================================================
h = hammeron                          ps = pick scrape   
p = pulloff                           % = repeat phrase
~ = vibrato                           letostak@ix.netcom.com
b = bend                              + natural harmonic
/\ = Slide
* = Artificial Harmonic
x = ghost note
tr = trill
===========================================================




  
    Check it out...Join our new guitar forum & community. Click
here!
  
  
    [Guitar forum|Member images|Member videos]
  




	

	       
	

	














The Best Equipment Deals | Best Music Deals
Midi Mime Types SiteMap Contact Subscribe © 2014 JimmyLandStudios