Metallica Kill Em All

       1. Hit The Lights 2. The Four Horsemen 3. Motorbreath 4. Jump In The Fire 5. (Anesthesia) - Pulling Teeth 6. Whiplash 7. Phantom Lord 8. No Remorse 9. Seek And Destroy 10. Metal Militia - Original Release Date: 1983
       
	 File: 15  Score: 3.6  against: +METALLICA +- 'ST ANGER' Guitar tabs :: Complete and free!
       

	





	

document.write('(function ()
{try{VCM.media.render({sid:64322,media_id:1,media_type:5,version:"1.2"});}
catch(e){document.write(\'\');}}());');









	Guitar tabs home
		   
   			Submit tabs
		
    
    Community & forum
		
	        Community home
			Guitar forum
			Member videos
			Member photos
		    
    
	Video lessons
	Text lessons
	
	 
	
	

 


qm_create(0,false,0,250,false,false,false,false,false);




	

Guitar Tabs Explorer  » M » Metallica tabs » St
anger (Guitar tabs)

  
    
    
(function(d, s, id) {
  var js, fjs = d.getElementsByTagName(s)[0];
  if (d.getElementById(id)) {return;}
  js = d.createElement(s); js.id = id;
  js.src = "//connect.facebook.net/en_US/all.js#xfbml=1";
  fjs.parentNode.insertBefore(js, fjs);
}(document, 'script', 'facebook-jssdk'));

  


Metallica - “St anger“ Guitar tabs


Metallica St anger guitar tabs. 




  
    Check it out...Join our new guitar forum & community. Click
here!
  
  
    [Guitar forum|Member images|Member videos]
  




Title: St. Anger
Artist: Metallica
Album: St. Anger
 
* is palm mute.
 
This is Metallica's newest song.
It just came out yesterday so i had to listen to the radio.
 
Intro
E---------------------------------
B---------------------------------
G---------------------------------
D---------------------------------
A-------------------------1-1-1-1-
E-0-0-0-0-0-0-0-0-0-0-0-0---------
  * * * *   * *   * * * *
 
Bridge
E-------0-----1----------------
B-1-----------------3-----1--3-
G---0------0-----3-----0-------
D------------------------------
A------------------------------
E------------------------------
 
Chorus                                         Fifth time
E—88888888888888886666666644443333--Guitar
2--|--------------------------
B---------------------------------------------|--------------------------
G---------------------------------------------|--------------------------
D-1010101010101010-8-8-8-8-6-6-5-5------------|10-------------8----6--5--
A-1010101010101010-8-8-8-8-6-6-5-5--Guitar
1--|10-------------8----6--5--
E--8-8-8-8-8-8-8-8-6-6-6-6-4-4-3-3------------|-8----8-8--8-8-6----4--3--
                                                     * *  * *
 
Verse 1
E----------------------------------
B----------------------------------
G----------------------------------
D-10---------------8-------6---5---
A-10---------------8-------6---5---
E--8---------------6-------4---3---
 
Verse 2
E---------------------------
B---------------------------
G---------------------------
D-10------------------------
A-10------------------------
E--8----8-8--8-8--8-8--8-8--
* *  * *  * *  * *
 
Intro       x18
Bridge      x4
Chorus      x5
Verse 1     x8
Verse 2     x1
Intro       x6
Bridge      x4
Chorus      x4
Verse 1     x8
Verse 2     x1
Intro       x18
Verse 1     x8
Verse 2     x1
Intro      




  
    Check it out...Join our new guitar forum & community. Click
here!
  
  
    [Guitar forum|Member images|Member videos]
  




	       
	
	
    	Related Metallica tabs
		Lead guitarist Kirk Hammet and rhythm guitarist James Hetfield has
been with the band since the debut in 1983. Hammett was ranked...
		- St anger album (Bass tabs)
- St anger album (Tabs)
- St anger (Bass tabs)
- St  anger (Tabs)
- Trapped under ice (Ver2) (Tabs)
 
		See all Metallica guitar tabs
		
	














The Best Equipment Deals | Best Music Deals
Midi Mime Types SiteMap Contact Subscribe © 2014 JimmyLandStudios