Led Zeppelin The Complete Studio Recordings (1993)

       "Communications Breakdown" "Babe I'm Gonna Leave You" "Good Times Bad Times" "Whole Lotta Love" "Thank You" "Ramble On" "Heartbreaker" "What Is and What Should Never Be" "Immigrant Song" "Since I've Been Loving You" "Gallow's Pole" "Stairway to Heaven"
       
	 File: 41  Score: 3.4  against: +AC/DC +- 'HIGHWAY TO HELL (VER2)' Bass tabs :: Complete and free!
       

	





	

document.write('(function ()
{try{VCM.media.render({sid:64322,media_id:1,media_type:5,version:"1.2"});}
catch(e){document.write(\'\');}}());');









	Guitar tabs home
		   
   			Submit tabs
		
    
    Community & forum
		
	        Community home
			Guitar forum
			Member videos
			Member photos
		    
    
	Video lessons
	Text lessons
	
	 
	
	

 


qm_create(0,false,0,250,false,false,false,false,false);




	

Guitar Tabs Explorer  » A » AC/DC tabs » Highway to
hell (ver2) (Bass tabs)

  
    
    
(function(d, s, id) {
  var js, fjs = d.getElementsByTagName(s)[0];
  if (d.getElementById(id)) {return;}
  js = d.createElement(s); js.id = id;
  js.src = "//connect.facebook.net/en_US/all.js#xfbml=1";
  fjs.parentNode.insertBefore(js, fjs);
}(document, 'script', 'facebook-jssdk'));

  


AC/DC - “Highway to hell (ver2)“ Bass tabs

			
				
				
				
				
				
				
			
			
AC/DC bass tabs and guitar video lesson for Highway to hell (ver2).
Learn how to play HighWay To Hell by AC/DC on guitar in this free
guitar lesson from SoloDallas. 




  
    Check it out...Join our new guitar forum & community. Click
here!
  
  
    [Guitar forum|Member images|Member videos]
  




Tuning: Standard EBGDAE

Difficulty: intermediate 

Singer: Ac/Dc
Song: Highway to hell
Tabbed by Owen 
KEYS:
~=Let Ring

INTRO (00:01)
G|-------------------------|
D|-------------------------| x1
A|-------------------------|
E|-552-223---223-223-2-55-|

VERSE (00:09) (Just Before Drums)
G|----------------------------|
D|----------------------------| x4
A|----------------------------|
E|--555-552---223-223-2-55---|

PRE CHORUS (00:42)
G|----------------------------------|
D|----------------------------------| x1      
A|----------------------------------|
E|-555-552---223-223-2-000000000000|
  
CHORUS (00:53)
G|----------------------------------------------------------------|
D|---------------5-4--------------5-4---------------5-6--------0~-|x1
A|----------------------------------------------------------------|
E|--5-5-5-5-5-5-5----5-5-5-5-5-5-5----5-5-5-5-5-5-5----5-5-5-5----|

VERSE (01:11)
G|------------------------|
D|------------------------| x3
A|------------------------|        
E|--555--552223-223-2-55-|

PRE CHORUS (1:36)
G|-----------------------------------|
D|-----------------------------------| x1      
A|-----------------------------------|
E|-555-552---223-223-2-000000000000-|

CHORUS (1:47) 
G|----------------------------------------------------------------|
D|---------------5-4--------------5-4---------------5-6--------0~-|
A|----------------------------------------------------------------|
E|--5-5-5-5-5-5-5----5-5-5-5-5-5-5----5-5-5-5-5-5-5----5-5-5-5----|

SOLO (02:03)
G|-------------|
D|-------------| x2
A|-------------|
E|--222-333-2--|

CHORUS (02:10) REPEAT TILL (2:59)!!!!!!! 
G|----------------------------------------------------------------|
D|---------------5-4--------------5-4---------------5-6--------0~-|
A|----------------------------------------------------------------|
E|--5-5-5-5-5-5-5----5-5-5-5-5-5-5----5-5-5-5-5-5-5----5-5-5-5----|




  
    Check it out...Join our new guitar forum & community. Click
here!
  
  
    [Guitar forum|Member images|Member videos]
  




	       
	
	
    	Related AC/DC tabs
		While members have been changed through the years, the brothers
Angus and Malcolm Young have been with the band since day one. Th...
		- Highway to hell (Ver2) (Chords)
- Highway to hell (Chords)
- Highway to hell album (Tabs)
- Highway to hell (Ver2) (Tabs)
- Highway to hell (Bass tabs)
 
		See all AC/DC guitar tabs
	

You need a Frames Capable browser to view this content.


	














The Best Equipment Deals | Best Music Deals
Midi Mime Types SiteMap Contact Subscribe © 2014 JimmyLandStudios