Red Hot Chili Peppers Greatest Hits [Explicit] (2003)

       "Under The Bridge""Give It Away""Californication""Scar Tissue""Soul To Squeeze""Otherside""Suck My Kiss""By The Way""Parallel Universe""Breaking The Girl""My Friends""Higher Ground""Universally Speaking""Road Trippin'""Fortune Faded""Save The Population"
       
	 File: 48  Score: 6.6  against: +RED +HOT CHILI PEPPERS - 'GRAND PAPPY DU PLENTY' Guitar tabs :: Complete and free!
       

	





	

document.write('(function ()
{try{VCM.media.render({sid:64322,media_id:1,media_type:5,version:"1.2"});}
catch(e){document.write(\'\');}}());');









	Guitar tabs home
		   
   			Submit tabs
		
    
    Community & forum
		
	        Community home
			Guitar forum
			Member videos
			Member photos
		    
    
	Video lessons
	Text lessons
	
	 
	
	

 


qm_create(0,false,0,250,false,false,false,false,false);




	

Guitar Tabs Explorer  » R » Red Hot Chili Peppers tabs
» Grand pappy du plenty (Guitar tabs)

  
    
    
(function(d, s, id) {
  var js, fjs = d.getElementsByTagName(s)[0];
  if (d.getElementById(id)) {return;}
  js = d.createElement(s); js.id = id;
  js.src = "//connect.facebook.net/en_US/all.js#xfbml=1";
  fjs.parentNode.insertBefore(js, fjs);
}(document, 'script', 'facebook-jssdk'));

  


Red Hot Chili Peppers - “Grand pappy du plenty“ Guitar
tabs


Red Hot Chili Peppers Grand pappy du plenty guitar tabs. 




  
    Check it out...Join our new guitar forum & community. Click
here!
  
  
    [Guitar forum|Member images|Member videos]
  




Tuning: Standard EBGDAE

Difficulty: novice

Grand Pappy Du Plenty
Red Hot Chili Peppers


		
E|-------------------------------------------------------------------|
B|-------------------------------------------------------------------|
G|-----------------------------------------------------0~------------|
D|------2---------2-----2------------(12)~--------------------------|
A|-----------------------0--2--4--7---------------4-4----------------|
E|-2-2-------2-2------------0--2--5---------------2-2----------------|

E|-------------------------------------------|
B|-------------------------------------------|
G|-------------------------------------------|
D|--2-2--2--2-----2-2-2-2--------2-2--------|
A|--0-0--0--0-----0-0-0-0--------0-0--4-----|
E|-------------------------------------2-----|
					    
E|-0-----------------------------------------------0--|--------------|
B|---------------------------------------------1---1--|--------------|
G|------------2-----1~---------1---------2-----0---0--|--------------|
D|---------------------------------------------2---2--|-------2------|
A|-------0------------------------------------3---3--|--------------|
E|---------------------------------1------------------|--3--------1--|

E|--------------------------------------------|
B|-19~--------------------22~-----8-----------|
G|-------------14r----------------9--------4~-|
D|-------------------------------10----------|
A|--------------------------------------------|
E|--------------------------------------------|




  
    Check it out...Join our new guitar forum & community. Click
here!
  
  
    [Guitar forum|Member images|Member videos]
  




	       
	
	
    	Related Red Hot Chili Peppers tabs
		While the bassist and vocalist has been in the band since the start
guitar players has been coming and going. Josh Klinghoffer is...
		- Strange man (Tabs)
- Long progression (Ver2) (Chords)
- Long progression (Chords)
- Don't forget me (Ver2) (Tabs)
- Long progression (Bass tabs)
 
		See all Red Hot Chili Peppers guitar tabs
		
	














The Best Equipment Deals | Best Music Deals
Midi Mime Types SiteMap Contact Subscribe © 2014 JimmyLandStudios