Red Hot Chili Peppers Greatest Hits [Explicit] (2003)

       "Under The Bridge""Give It Away""Californication""Scar Tissue""Soul To Squeeze""Otherside""Suck My Kiss""By The Way""Parallel Universe""Breaking The Girl""My Friends""Higher Ground""Universally Speaking""Road Trippin'""Fortune Faded""Save The Population"
       
	 File: 48  Score: 12.4  against: +RED +HOT CHILI PEPPERS - 'PARALLEL UNIVERSE' Guitar tabs :: Complete and free!
       

	





	

document.write('(function ()
{try{VCM.media.render({sid:64322,media_id:1,media_type:5,version:"1.2"});}
catch(e){document.write(\'\');}}());');









	Guitar tabs home
		   
   			Submit tabs
		
    
    Community & forum
		
	        Community home
			Guitar forum
			Member videos
			Member photos
		    
    
	Video lessons
	Text lessons
	
	 
	
	

 


qm_create(0,false,0,250,false,false,false,false,false);




Guitar Tabs Explorer  » R » Red Hot Chili Peppers tabs
» Parallel universe (Guitar tabs)

  
    
    
(function(d, s, id) {
  var js, fjs = d.getElementsByTagName(s)[0];
  if (d.getElementById(id)) {return;}
  js = d.createElement(s); js.id = id;
  js.src = "//connect.facebook.net/en_US/all.js#xfbml=1";
  fjs.parentNode.insertBefore(js, fjs);
}(document, 'script', 'facebook-jssdk'));

  


Red Hot Chili Peppers - “Parallel universe“ Guitar tabs


Red Hot Chili Peppers Parallel universe guitar tabs. Related pages are
Parallel universe chords, 
 Parallel universe bass tabs, 
 Strange man tabs, 
 Long progression (Ver2) chords, 
 Long progression chords. See all Red Hot Chili Peppers tabs. Submit
corrected and missing guitar tabs here. 




  
    Check it out...Join our new guitar forum & community. Click
here!
  
  
    [Guitar forum|Member images|Member videos]
  




Song: Parallel Universe
Album:Californication
Band: Red Hot Chili Peppers

All song is in tremolo, so every note should be read as two.
Intro:

E ------------
H ------------
G 5m-5m-5m-5m-
D ------------
A ------------
E ------------
(m means palm mute or mute with other left hand finger)

Verse:
E ------------------------------------------------
H ------------------------------------------------
G 5--5--5--5--5--5--5--5--3--3--3--3--3--3--3--3--
D ------------------------------------------------
A ------------------------------------------------
E ------------------------------------------------

E ------------------------------------------------
H ------------------------------------------------
G 7--7--7--7--8--8--8--8--0--0--0--0--12-10-8--7--
D ------------------------------------------------
A ------------------------------------------------
E ------------------------------------------------

The end of verse (played instead of second line):
E ------------------------------------------------
H ------------------------------------------------
G 7--7--7--7--8--8--8--8--0--0--0--0--7--8--10-12-
D ------------------------------------------------
A ------------------------------------------------
E ------------------------------------------------

Chorus:
  C5    G5    Ab5         G5
E ------------------------------------------------
H ------------------------------------------------
G 5--5--------------------------------------------
D 5--5--5--5--6--6--6--6--5--5--5--5--5--5--5--5--
A 3--3--5--5--6--6--6--6--5--5--5--5--5--5--5--5--
E ------3--3--4--4--4--4--3--3--3--3--3--3--3--3--

Interlude (play every second bass riff):
E ------------------------
H ------------------------
G 5--5--------------------
D ------5--5--6--6--3--3--
A ------------------------
E ------------------------

Outro:
I didn't write ot, because it's warped by effects and is completely
incomprehensible. You can simply play verse part or improvisate. I
always choose the second variant, but it's up to you.

Song structure:
Intro:
3 x Verse
2 x Chorus
2 x Verse
4 x Chorus
8 x Interlude
2 x Verse
4 x Chorus
4 x Outro
Pet




  
    Check it out...Join our new guitar forum & community. Click
here!
  
  
    [Guitar forum|Member images|Member videos]
  




	

	       
	

	














The Best Equipment Deals | Best Music Deals
Midi Mime Types SiteMap Contact Subscribe © 2014 JimmyLandStudios