Red Hot Chili Peppers Greatest Hits [Explicit] (2003)

       "Under The Bridge""Give It Away""Californication""Scar Tissue""Soul To Squeeze""Otherside""Suck My Kiss""By The Way""Parallel Universe""Breaking The Girl""My Friends""Higher Ground""Universally Speaking""Road Trippin'""Fortune Faded""Save The Population"
       
	 File: 48  Score: 6.6  against: +RED +HOT CHILI PEPPERS - 'READY MADE' Bass tabs :: Complete and free!
       

	





	

document.write('(function ()
{try{VCM.media.render({sid:64322,media_id:1,media_type:5,version:"1.2"});}
catch(e){document.write(\'\');}}());');









	Guitar tabs home
		   
   			Submit tabs
		
    
    Community & forum
		
	        Community home
			Guitar forum
			Member videos
			Member photos
		    
    
	Video lessons
	Text lessons
	
	 
	
	

 


qm_create(0,false,0,250,false,false,false,false,false);




Guitar Tabs Explorer  » R » Red Hot Chili Peppers tabs
» Ready made (Bass tabs)

  
    
    
(function(d, s, id) {
  var js, fjs = d.getElementsByTagName(s)[0];
  if (d.getElementById(id)) {return;}
  js = d.createElement(s); js.id = id;
  js.src = "//connect.facebook.net/en_US/all.js#xfbml=1";
  fjs.parentNode.insertBefore(js, fjs);
}(document, 'script', 'facebook-jssdk'));

  


Red Hot Chili Peppers - “Ready made“ Bass tabs


Red Hot Chili Peppers Ready made bass tabs. Related pages are Ready
made tabs, 
 Readymade tabs, 
 Strange man tabs, 
 Long progression (Ver2) chords, 
 Long progression chords. See all Red Hot Chili Peppers tabs. Submit
corrected and missing bass tabs here. 




  
    Check it out...Join our new guitar forum & community. Click
here!
  
  
    [Guitar forum|Member images|Member videos]
  




-------------------------------------------------------------------------------
			     READYMADE - Red Hot Chili Peppers
-------------------------------------------------------------------------------

Tabbed By : Kevin

Tuning:Standard

verse:
G|-----------------------------------------------------------------|
D|---------5---------------5---------------5---------------------5-|x9
A|-5-7-7-5---7-5-7-5-7-7-5---7-5-7-5-7-7-5---7-5-7---------5-6-7---|
E|-------------------------------------------------4-5-6-7---------|

G|----------------------------------------------------------------|
D|---------5---------------5---------------5----------------------|
A|-5-7-7-5---7-5-7-5-7-7-5---7-5-7-5-7-7-5---7-5-7---------5-6-7\-|
E|-------------------------------------------------4-5-6-7--------|

chorus:
G|----------------------------------------------------|
D|------5---------------------------------------------|
A|-------------------3-5-7------------------------5-7-|
E|-3--3----3-3--3-3--------3/5--5-5--5-5--5-5---7-----|

G|---------------------------------------------------------|
D|-------------5---------------------------5---------------|
A|-7--7---5-7-------5-7--------7--7---5-7-------5-7--------|
E|------7---------7------7-5-0------7---------7------7-5-0-|

G|-----------------------------------------------------|
D|------5----------------------------------------------|
A|------------------3-5-7-5------------------------5-7-|
E|-3--3----3-3--3-3---------3/5--5-5--5-5--5-5---7-----|

G|----------------------------------------------------7-----|
D|-------------5---------------------------5--------9---97--|
A|-7--7---5-7-------5-7--------7--7---5-7-------5-7-------7-|
E|------7---------7------7-5-0------7---------7-------------|

verse:
G|-----------------------------------------------------------------|
D|---------5---------------5---------------5---------------------5-|x5
A|-5-7-7-5---7-5-7-5-7-7-5---7-5-7-5-7-7-5---7-5-7---------5-6-7---|
E|-------------------------------------------------4-5-6-7---------|

G|----------------------------------------------------------------|
D|---------5---------------5---------------5----------------------|
A|-5-7-7-5---7-5-7-5-7-7-5---7-5-7-5-7-7-5---7-5-7---------5-6-7\-|
E|-------------------------------------------------4-5-6-7--------|

chorus:
G|--------------------------------------------------|
D|--------------------------------------------------|
A|-------------------5-3------------------------5-7-|
E|-3--3-3--3-3--3-3------3/5--5-5--5-5--5-5---7-----|

G|---------------------------------------------------------|
D|-------------5---------------------------5---------------|
A|-7--7---5-7-------5-7--------7--7---5-7-------5-7--------|
E|------7---------7------7-5-0------7---------7------7-5-0-|

G|------------------------------------------------------|
D|------5------------5-7-5------------------------------|
A|-------------3-5-7-------7------------------------5-7-|
E|-3--3----3-3---------------3/5--5-5--5-5--5-5---7-----|

G|--------------------------------------------|
D|-------------5------------------------------|
A|-7--7---5-7-------5-7--------7--7---5-7--7\-|
E|------7---------7------7-5-0------7---------|

solo:
G|-----------------------------------------------------------------|
D|---------5---------------5---------------5---------------------5-|x4
A|-5-7-7-5---7-5-7-5-7-7-5---7-5-7-5-7-7-5---7-5-7---------5-6-7---|
E|-------------------------------------------------4-5-6-7---------|

break:
G|-----------------------------------------------------|
D|-----------------------------------------------------|x2
A|-5--4--2---------------------------------------------|
E|--------------------------5--4--2--------------------|

rest

verse:
G|-----------------------------------------------------------------|
D|---------5---------------5---------------5---------------------5-|x5
A|-5-7-7-5---7-5-7-5-7-7-5---7-5-7-5-7-7-5---7-5-7---------5-6-7---|
E|-------------------------------------------------4-5-6-7---------|

G|----------------------------------------------------------------|
D|---------5---------------5---------------5----------------------|
A|-5-7-7-5---7-5-7-5-7-7-5---7-5-7-5-7-7-5---7-5-7---------5-6-7\-|
E|-------------------------------------------------4-5-6-7--------|

chorus:
G|----------------------------------------------------|
D|-----------------------5----------------------------|
A|------------------------------------------------5-7-|
E|-3--3-3--3-3--3-3--3-3---3/5--5-5--5-5--5-5---7-----|

G|---------------------------------------------------------|
D|-------------5---------------------------5---------------|
A|-7--7---5-7-------5-7--------7--7---5-7-------5-7--------|
E|------7---------7------7-5-0------7---------7------7-5-0-|

G|-----------------------------------------------------|
D|------5-------------5--------------------------------|
A|--------------3-5-7---7-5------------------------5-7-|
E|-3--3----3-3--------------3/5--5-5--5-5--5-5---7-----|

G|--------------------------------------------|
D|-------------5------------------------------|
A|-7--7---5-7-------5-7--------7--7---5-7--7\-|
E|------7---------7------7-5-0------7---------|

| /  slide up
| \  slide down
| h  hammer-on
| p  pull-off
| ~  vibrato
| +  harmonic
| x  Mute note




  
    Check it out...Join our new guitar forum & community. Click
here!
  
  
    [Guitar forum|Member images|Member videos]
  




	

	       
	

	














The Best Equipment Deals | Best Music Deals
Midi Mime Types SiteMap Contact Subscribe © 2014 JimmyLandStudios