iva - Joanambrosio Dalza
from "Intabulatura de lauto: libro quarto" - 1508

TablEdited by hamilcar

Tuning : E A D F# B E    Time Signature: 6/8

 |           |            |           |            |           |      
     
|--------7---5-------3---|2-------0---------------|--------7---5-------3---|
|------------------------|------------3-----------|3-----------------------|
|------------------------|--------------------3---|3-----------------------|
|------------0-----------|0-----------0-----------|0-----------0-----------|
|------------------------|------------------------|------------------------|
|------------------------|------------------------|------------------------|

 |           |            |           |            |           |      
     
|2-------0-----------5---|3-------2---0-------3---|2-------0-----------5---|
|------------3-----------|------------2-----------|------------3-----------|
|------------3-----------|------------------------|------------3-----------|
|0-----------0-----------|0-----------------------|0-----------0-----------|
|------------------------|------------0-----------|------------------------|
|------------------------|------------------------|------------------------|

 |           |            |           |            |           |      
     
|3-------2---0-------3---|2-------0-----------0---|2-------3---0-------3---|
|------------2-----------|------------3-----------|------------2-----------|
|------------------------|------------3-----------|------------------------|
|0-----------------------|0-----------0-----------|0-----------------------|
|------------0-----------|------------------------|------------0-----------|
|------------------------|------------------------|------------------------|

 |           |            |           |            |           |      
     
|2-------0-----------0---|2-------3---0-------3---|2-------0-----------5---|
|------------3-----------|------------2-----------|------------3-------3---|
|------------3-----------|------------------------|------------3-----------|
|0-----------0-----------|0-----------------------|0-----------0-----------|
|------------------------|------------0-----------|------------------------|
|------------------------|------------------------|------------------------|

 |           |            |           |            |           |      
     
|--------5---5-------5---|--------5---5-------5---|--------5---5-------3---|
|--------3---3-------3---|--------3---3-------3---|--------3---3-----------|
|------------------------|------------------------|------------------------|
|0-----------0-----------|0-----------0-----------|0-----------0-----------|
|------------------------|------------------------|------------------------|
|------------------------|------------------------|------------------------|

 |           |            |           |            |           |      
     
|2-------0-----------5---|--------5---5-------5---|--------5---5-------5---|
|------------3-------3---|--------3---3-------3---|--------3---3-------3---|
|------------3-----------|------------------------|------------------------|
|0-----------0-----------|0-----------0-----------|0-----------0-----------|
|------------------------|------------------------|------------------------|
|------------------------|------------------------|------------------------|

 |           |            |           |            |           |      
     
|--------5---5-------3---|2-------0-----------0---|--------0---0-------3---|
|--------3---3-----------|3-----------3-------2---|--------2---2-----------|
|------------------------|------------3-----------|------------------------|
|0-----------0-----------|0-----------0-----------|------------------------|
|------------------------|------------------------|0-----------0-----------|
|------------------------|------------------------|------------------------|

 |           |            |           |            |           |      
     
|2-------0-----------0---|--------0---0-------3---|2-------0---------------|
|3-----------3-------2---|--------2---2-----------|3-----------3-----------|
|------------3-----------|------------------------|--------------------3---|
|0-----------0-----------|------------------------|0-----------0-----------|
|------------------------|0-----------0-----------|------------------------|
|------------------------|------------------------|------------------------|

 |           |            |           |            |           |      
     
|0-----------2-----------|0-----------------------|0-----------2-----------|
|--------2-----------3---|--------2---3-----------|--------2-----------3---|
|------------------------|--------------------3---|------------------------|
|------------0-----------|------------0-----------|------------0-----------|
|0-----------------------|0-----------------------|0-----------------------|
|------------------------|------------------------|------------------------|

 |           |            |           |            |           |      
     
|0-----------------------|------------------------|------------------------|
|--------2---3-----------|3-----------2-------0---|--------------------0---|
|--------------------3---|--------3---------------|3-------1---0-----------|
|------------0-----------|0-----------0-----------|0-----------0-----------|
|0-----------------------|------------------------|------------------------|
|------------------------|------------------------|------------------------|

 |           |            |           |            |           |      
     
|------------------------|------------------------|------------------------|
|--------3---2-------0---|------------------------|------------2-------3---|
|3-----------------------|3-------1---0-------3---|1-------0---3-----------|
|0-----------0-----------|0-----------0-----------|0-----------2-----------|
|------------------------|------------------------|------------0-----------|
|------------------------|------------------------|------------------------|

 |           |            |           |            |           |      
     
|------------------------|------------------------|------------------------|
|0-------2---3-----------|------------2-------3---|0-------2---3-------2---|
|------------3-------3---|1-------0---3-----------|------------3-----------|
|------------0-----------|0-----------2-----------|------------0-----------|
|0-----------------------|------------0-----------|0-----------------------|
|------------------------|------------------------|------------------------|

 |           |            |           |            |           |      
     
|------------------------|------------------------|------------------------|
|3-------0---2-------3---|0-------2---3-------2---|3-------0---2-------3---|
|3-----------3-----------|3-----------3-----------|3-----------3-----------|
|0-----------2-----------|2-----------0-----------|0-----------2-----------|
|------------0-----------|0-----------------------|------------0-----------|
|------------------------|------------------------|------------------------|

 |           |            |           |            |           |      
     
|----------------0---2---|3---5---3---2---0-------|0---------------0---2---|
|0-------2---3-----------|--------------------3---|----3-2-0-2-3-----------|
|3-----------3-----------|------------------------|------------3-----------|
|2-----------0-----------|------------0-----------|------------0-----------|
|0-----------------------|------------------------|0-----------------------|
|------------------------|------------------------|------------------------|

 |           |            |           |            |           |      
     
|3---5---3---2---0-------|0-------------------5---|5-------3---2-------0---|
|--------------------3---|----3-2-0-2-3-----------|3-----------------------|
|------------------------|------------3-----------|------------------------|
|------------0-----------|------------0-----------|0-----------0-----------|
|------------------------|0-----------------------|------------------------|
|------------------------|------------------------|------------------------|

 |           |            |           |            |           |      
     
|--------------------5---|5-------3---2-------0---|--------5---2-------5---|
|3-----------3-----------|3-----------------------|3-----------------------|
|--------3---------------|------------------------|------------------------|
|0-----------0-----------|0-----------0-----------|0-----------0-----------|

|------------------------|------------------------|------------------------|
|------------------------|------------------------|------------------------|

 |           |            |           |            |           |      
     
|3-------2---0-------2---|--------5---2-------5---|3-------2---0-------2---|
|------------2-----------|3-----------------------|------------2-----------|
|------------------------|------------------------|------------------------|
|0-----------------------|0-----------0-----------|0-----------------------|
|------------0-----------|------------------------|------------0-----------|
|------------------------|------------------------|------------------------|

 |           |            |           |            |           |      
     
|------------------------|------------------------|----0-----------0-------|
|3-----------3---2---3---|0---2---3---2---3---2---|3-------2---3-------3---|
|--------3---------------|------------------------|------------------------|
|0-----------0-----------|------------------------|0-----------0-----------|
|------------------------|------------0-----------|------------------------|
|------------------------|3-----------------------|------------------------|

 |           |            |           |            |           |      
     
|------------------------|----0-2-3-5-2---3---0---|2---0-------0-----------|
|0---2---3---2---3---2---|------------------------|--------3-------3-2-0-2-|
|------------------------|------------------------|------------------------|
|------------------------|0-----------0-----------|0-----------------------|
|------------0-----------|------------------------|------------0-----------|
|3-----------------------|------------------------|------------------------|

 |           |            
|-----------------------||
|3----------------------||
|3----------------------||
|0----------------------||
|-----------------------||
|-----------------------||

The Best Equipment Deals | Best Music Deals
Midi Mime Types SiteMap Contact Subscribe © 2014 JimmyLandStudios