|       |       |       |          |       |           |       |
e|----------------0-3p0-------------|--------------------------------------|
B|--1-----1---1-3-------1-----------|--------0===3-------------3-0===1-----|
G|--1-----1---------------1---1---2=|====1-2-----2---0h2p0---0-------4-----|
D|--0-----0-----------------2-------|------------1---------4---------2-----|
A|--1-----1-------------------------|------------------------------0=======|
E|------------------0===============|--1=======2=====------0=======--------|
    mp              mf

    |       |       |       |          |       |           |       |
e|--3---0-3===0-0-------------------|--------------------------------------|
B|--5-----4===--3-------------------|--------0===3---0h2p0-----3-0===1-----|
G|--5-----4===--3-------------------|--2-1-2-----2-----------0-------4-----|
D|--0=====----------------0-2-------|------------1---------4---------2---0=|
A|--------4=====3-----2h3-----------|------------------------------0=====--|
E|----------------------------3---2-|--1=======2=====------0=======--------|
    -     -     -
    f

    |       |       |       |          |       |       |       |
e|----5p2---3p0---0=======----3-3-3-|--3p1-----------0---------------0-|
B|--------3-----1-----1---3---------|------1-------0---1-----1---1h3---|
G|--------------------2---4---------|--------1---0-----0-----0---------|
D|==================--3---3---------|--0=======3=======2-----2---------|
A|----------------------------------|------------------2-----2---------|
E|--------------------3---3---------|----------------------------------|
                      -   -
    < - - - - - - - .                                < - . . - >

                                                                da
coda2
    |       |       |       |          |       |       |       |da
coda1
e|----------------0-1p0---0===------|--------0===--------2---5=========|
B|--1-----1---1h3---3===3===--1-----|------------1---3=====3-----4-----|
G|--1-----1---------3=======------2=|====1-2-----2---2=======----6-----|
D|--0-----0-------------------------|------------1---2=======----5-----|
A|--1-----1---------3=======--------|--------------------------0=======|
E|--------------------------0=======|--1=======2=====--3=====----------|
                            -
    mp              mf

  _________________________________  _________________________________

 | 1.                               | 2.
    |       |       |       |          |       |       |        |
e|----------------------------3-3-3-|-----------------------------------|
B|--5-------3---1=====--------------|--5-------3---1--------------------|
G|------5---0---0=====0-----0------*|------5---0---0--------------------|
D|--4=======3---2=====4-----4------*|--4=======3---2----1h2---0---------|
A|--5=======2---3=====--------------|--5=======2---3------------3-2---0-|
E|----------------------3-3---------|-----------------------------------|
    -       -
                        près du chevalet
                        avec humour (facultatif)

    |       |       |       |           |       |        |       |
                  >       >        >          >        >   >
e|------0-3-\-8---6=========-6h7---4=|==========-4h5---0=================|
B|--3---------------------6===-------|--------5====--------1-----1---1---|
G|--2=======--------------7===-------|--------5====--------4-----2---0---|
D|--3=======----------6---6===-------|----4---4====----------------------|
A|--2=======-------------------------|--0=======---------0=======--------|
E|----------1-------0=======0--------|----------0----------------0=======|
                          -                   -            -

    |       |       |       |           |       |         |        |
                  >       >        >          >        >
e|------0-3-\-8---6=========-6h7---4=|==========-4h5---12===========--12-12-12-|
B|--3---------------------6===-------|--------5====---------11--10===----------|
G|--2=======--------------7===-------|--------5====---------12--12===----------|
D|--3=======----------6---6===-------|----4---4====---------12-----------------|
A|--2=======-------------------------|--0=======----------0=========-----------|
E|----------1-------0-------0--------|----------0-------------------9==========|
                          -                   -

    |          |        |       |           |       |       |       |
                      >       >       >           >       >
e|--12-10-------------9---7---6===----5==|====----------------------5-----|
B|--10======10===-----7=======8---9---0==|====8---7---6---7===----------7-|
G|--10=========--10---7=======7=======7==|========6=======6===----6===----|
D|--0==========---------7=====--6=====5==|========5=======7===7-----------|
A|-------------0======-------------------|------------------5=======------|
E|---------------------------------------|--0=======5=======--------------|
                      -       -       -           -       -

    |       |       |       |          |       |       |       | da
capo
              >   >                                  >       >   al
coda1
e|----------------------------------|--------2p0-------------------|
B|--5---------5---3=========--------|----0h3-----0---3=======2=========|
G|--4-----4---3---2=========--4---2-|--1-------------3=======0=========|
D|--5---5-----4---2=========4-3=====|--0=============3===3===2=========|
A|--4=======3=====--2-4---5---------|------------------1=====--0=======|
E|----------------------------1=====|--0=============------------------|
              -   -                                  -       -

  coda1
    |       |       |       |          |       |       |       |
e|----------------------------------|------------0---3===--------------|
B|--5-------3---1---------------0---|--1-----3===----------3-----3-----|
G|------5---0---0-----2-----3-------|*-2-----------------3-----3-----3-|
D|--4=======3---2-------------------|*-----------------7-----5-----4---|
A|--5=======2---3-------------------|----------------------------------|
E|----------------------------------|--1=======2=====--3===============|
                                                         -   -

    |       |       |       |          |       |       |       |
                  >           >
e|-)5p3-----------------------8---0-|----------------0===----0-----0---|
B|-(3===6-5-3-5---3===----1---8-----|--1-----3===4-------1-----1-----0=|
G|-)3=======------1===----2---7-----|--2-----4=======----4-----4-----1=|
D|-(3=======------3===3---3---7-----|----------------------------------|
A|-)3=======--------2=====--0=======|------------------0=======--------|
E|----------------------------------|--1-------4=====----------3=====--|
                  -           -

    |       |       |       |          |       |        |        |
e|----1---0===------------------0---|------------------------------------|
B|====--------3---3===----2=========|--------4===--------------------3---|
G|====------------0===----0=========|------5-----6/7---5===----3=====----|
D|----------------2===2---2=========|----4-------------3===----3=====----|
A|--------------------------2-3---4-|--5=======--------5===5---5-4-5---6-|
E|--0=======4=======----------------|----------5-
The Best Equipment Deals | Best Music Deals
Midi Mime Types SiteMap Contact Subscribe © 2014 JimmyLandStudios