Guitar Tablature

       Diatonic scale on C, guitar tablature
       
	 File: 82  Score: 5  against: +o +1 of Three Fifteenth Century Songs - Author unknown
from "Selected Masterpieces for the Classic Guitar" (Ashley, 1970)
complied and edited by Frantz Casseus

Tabbed Mark Stevens
       
o 1 of Three Fifteenth Century Songs - Author unknown
from "Selected Masterpieces for the Classic Guitar" (Ashley, 1970)
complied and edited by Frantz Casseus

Tabbed by Mark Stevens

Please note that the notes indicated by ( ) indicate that the
previous
played  notes are sustained. 


|-5----5--5--|-8--7--5--(5)--|-5--3--1-0-1-3-1-0---|-0-------0----|
|-6----6--6--|-5--5--5--(5)--|----5--3-----------3-|-2-3-2-0-2----|
|-7----7--7--|-------5--(5)--|-5-----2-------------|-2-------2----|
|-0----0--0--|-7--6--7--(7)--|-3-----0-------------|--------------|
|------------|-----------0---|----3----------------|-0-------0----|
|------------|---------------|---------------------|--------------|


|-5----5--5--|-8--7--5--(5)--|-5--3--1-0-1-3-1-0---|-0-------0---0-|
|-6----6--6--|-5--5--5--(5)--|----5--3-----------3-|-2-3-2-0-2-----|
|-7----7--7--|-------5--(5)--|-5-----2-------------|-2-------2-----|
|-0----0--0--|-7--6--7--(7)--|-3-----0-------------|---------------|
|------------|-----------0---|----3----------------|-0-------0-----|
|------------|---------------|---------------------|---------------|


|-1-1------------------|-----------------------|--------5--3-0-1-(1)-|
|-----3-3-5--(5)-(5)-1-|-3---1---0--(0)--2-----|---------------------|
|---2-4-4-5--(5)-(5)-2-|-2--(2)--2---1---2-----|---------------------|
|---0-5----------------|-0--(0)--2--(2)--2--7--|-5-2-3-(3)-2------0--|
-------------3---0----|-----------------0-----|---------------------|
|----------------------|-----------------------|---------------------|


|-0-(0)-(0)-------------|--------5-|-3---------------|--------5--3--0--1-(1)-|
|------------3--1---0---|-2--------|---5-6-(6)-5-----|-----------------------|
|-----------------2-2-1-|-2--------|--------7--5-----|-----------------------|
|-------------------2---|-2--------|---------------7-|-5-2-3-(3)-2-(2)----0--|
|-3--0---2--(2)-0-------|-0--------|-----------------|-----------------------|
|-------------------0---|----------|-----------------|-----------------------|


|-0-(0)-(0)-----------|-----------------|--------------------||
|-----------3-1---0---|----1--3-1-0-----|-----------------2--||
|---------------2-2-1-|-2-(2)-2---2-1---|-2-1-2-1-2-1---1-2--||
|-----------------2---|-3-(3)-0---2---4-|-------------4---2--||
|-3--0---2----0-------|-----------------|-----------------0--||
|-----------------0---|-----------------|-0------------------||

The Best Equipment Deals | Best Music Deals
Midi Mime Types SiteMap Contact Subscribe © 2014 JimmyLandStudios