94 Hours tab by As I Lay Dying, added : January 26th,
2004
		 
 

				
			
		
	




if (Math.floor(Math.random()*3) ==
0)
{
	document.write("");
}


	


 

	
		
			
				
					
						
							
								
94
Hours Tab
by As I Lay Dying tabs |
		
tabbed by godsmackthatkid
|
comments (31)

								
								
								
			1
					2
					3
					4
					5
		
  20
votes 


	 94 Hours Tab

								 
								

print
								
							
							
								

send
								
							
							
								

report
								
							
			
			
							
								

	
					
				More
versions:								
			
			
			
		
							
						Ver
2
		
				
			
		
							
						Ver 3
		
				
			
		
							
						Ver
4
		
				
			
		
							
						Ver
5
		
				
			
		
				


						
								

		
	
						
				
			
							
								
	
			
			
				
					
					Recommended
tabs
				
			
		
		
			If you like 94 Hours Tab by As I Lay Dying you
might also like these songs:
							This Calling Guitar Proby All That
Remains
							Composure Powerby August Burns Red
							Meddler Intro
Powerby August Burns Red
					
		
		
		
		

	
		
		94 Hours Lyricsby
As I Lay Dying Lyrics
	
	
								
								

	
	
	

	
			
			
			
				
					
						
					
					
						 
					
					
						
					
							
				
					
						+
to speed up (numpad)
						- to slow down (numpad)
						Esc to
stop
					
					Help
				
			
		
		
			
				
				
			
		
	


	
		
			
		
		
			94
Hours tab by As I Lay Dying,
www.Ultimate-Guitar.Com
		
	
	
		
			
			View 94 Hours tab on your
iPhone, iPod Touch or Android
		
		
			
			Listen to 94
Hours
		
		
			
			Add to favourites
		
							


		
		tf_artist = "As
I Lay Dying";
		tf_song = "94 Hours";
		
		


		as i lay dying-94
hours


Listen to the song for timing.

D|----------------------------------------------------------------|
A|----------------------------------------------------------------|
F|----------------------------------------------------------------|
C|--------7p0-----5p0----------------------7p0-----5p0------------|
(x4)
G|----8p0-----8p0-----8p0-7h8p7--5-----8p0-----8p0-----8p0-777-5--|
C|-0--------------------------------------------------------------|


D|----------------------------------------------------------------|
A|----------------------------------------------------------------|
F|-7p0-10p0-7p0-9p0-7p0-10p0-7p0-9p0-7p0-10p0-7p0-9p0--5----------| 
C|-----------------------------------------------------7-----(5)--|
(x1)
G|--------------------------------------------------------0-------|
C|--------------------------------------------------------0-------|
PM                                                        .


D|----------------------------------------------------------------|
A|----------------------------------------------------------------|
F|----------7p0-10p0-7p0-9p0-------------5------------------------|
C|-0-00-00---------------------0000-00---7-----(5)----------------|
(x4)
G|-0-00-00---------------------0000-00------0---------------------|
C|-0-00-00---------------------0000-00------0---------------------|
PM . .. ..                     .... ..      .


D|----------------------------------------------------------------|
A|----------------------------------------------------------------|
F|----------------------------------------------------------------|
C|-0-00-00---0-00-00-0--/--0-00-00--0000-00-------0-00-00-0--0--0| 
G|-0-00-00---0-00-00-0--/--0-00-00--0000-00-(x7)--0-00-00--0-0--0|
C|-0-00-00---0-00-00-0--/--0-00-00--0000-00-------0-00-00--0--0--0|
PM . .. ..   . .. .. .     . .. ..  .... ..       . .. ..  .  .  .


D|----------------------------------------------------------------|
A|----------------------------------------------------------------|
F|----------------------------------------------------------------|
C|--------7p0-----5p0----------------------7p0-----5p0------------|
(x4)
G|----8p0-----8p0-----8p0-7h8p7--5-----8p0-----8p0-----8p0-777-5--|
C|-0--------------------------------------------------------------|


Second Guitar
D|----------------------------------------------------------------|
A|----------------------------------------------------------------|
F|------------12-10-9---7--6--------------12-10-9---7--6----------|
C|-0-00-9-10---x-x--x---x--x--0-00--9-10---x-x--x---x--x----------|
(x4)
G|-0-00-7-8---10-8--7---5--4--0-00--7-8---10-8--7---5--4----------|
C|-0-00-----------------------0-00--------------------------------|
PM   ..                         ..

First Guitar comes in after
D|-------------------------------------------------------------------------|
A|-------------------------------------------------------------------------|
F|-12-10-9-10-9-------------12-10-9-10------------------9h10p9-------------|
C|-------------12-10-9(x1)-------------12-10-9-10-12-10------12-10-(x4)---|
G|-------------------------------------------------------------------------|
C|-------------------------------------------------------------------------|


D|----------------------------------------------------------------|
A|----------------------------------------------------------------|
F|----------------------------------------------------------------|
C|-0---0---10--9--5-----------------------------------------------|
(x1)
G|-0---0---8---7--3-----------------------------------------------|
C|-0---0----------------------------------------------------------|


D|--------------------------------------------------------------------|
A|--------------------------------------------------------------------|
F|--10-9----12-10-9----12-------10-9----12-10-9--12-10-9----14-12-10-9|
C|-------10---------10-----(x2)------10------------------10-----------|
(x5)
G|--------------------------------------------------------------------|
C|--------------------------------------------------------------------|
	

		
		tf_artist
= "As I Lay Dying";
		tf_song = "94 Hours";
		
		

        
							
	
	
	


								
							
						
						
	
					
				
			
		


	








var
loc = document.location.toString();
var def =
loc.indexOf("view_on");
var vote_txt = $('.cnt_rate').html();
var
tab_scroller;

$(document).ready (function
(){

	$(".search_input").autocomplete();

	first_link =
$('#print_link').attr('href');
	tab_scroller = new
TabScroller();

	$('#arr_scroll').bind('click',
function(){
		hide_scroll();
	
	$('.voting').bind('mouseleave',
function (){
	    $('.cnt_rate').html(vote_txt);
		stars_fill
(4);
	
	$('.fill').each(function(index) {
		$(this).bind('mouseover',
function(){
			stars_fill(index+1);
			$('.cnt_rate').html(votes_arr[index+1]);
		
	
	$('#pos_relative').hover
(function (){},hide_versions_area);
	$('#mv').hover
(show_versions_area);
	$('#coms_link').bind('click', function(){
		viewComments(102143,false,'all');
		location.href='#comments';
		return
false;
	
    $(".searchsel").click(function() {
       
$('.selwin').toggle();
        show_menu = 0;
   


	refferers(def,102143);

		if
(window.location.toString().indexOf("www.") != -1)// &&
document.referrer
	{
		$.ajax({
		type: 'GET',
		url:
'http://www.ultimate-guitar.com/src/ajax/ajax.log_bad_urls.php?callback=?',
		data:
{url: window.location.toString(), referrer:
document.referrer},
		dataType: 'jsonp'
	}
	





	
	  
		  
			  © 2010 Ultimate-Guitar.com or its affiliates. All rights
reserved    
			  About |
			  Help |
			  Site Map |
			  Link To Us |
			  Tell A Friend |
			  TOS |
			  Privacy Policy |
			  Advertise |
			  Contact
		  
	  
	





var _gaq = _gaq || [];
_gaq.push(['_setAccount', 'UA-9160560-1']);
_gaq.push(['_trackPageview']);

(function() {
var ga = document.createElement('script'); ga.type =
'text/javascript'; ga.async = true;
ga.src = ('https:' == document.location.protocol ? 'https://ssl' :
'http://www') +
'.google-analytics.com/ga.js';
var s = document.getElementsByTagName('script')[0];
s.parentNode.insertBefore(ga, s);
})();



    document.write(unescape("%3Cscript src='" +
(document.location.protocol == "https:" ?
"https://sb" : "http://b") + ".scorecardresearch.com/beacon.js'
%3E%3C/script%3E"));


  
    c1:2,
    c2:6745264,
    c3:"",
    c4:document.location,
    c5:"",
    c6:"",
    c15:""
  


  





_qoptions={
qacct:"p-84PgIiyhfAiVo"
};











The Best Equipment Deals | Best Music Deals
Midi Mime Types SiteMap Contact Subscribe © 2014 JimmyLandStudios