For You And Me tab by Amasic, added : October 15th, 2010
		 
 

				
			
		
	




if (Math.floor(Math.random()*3) ==
0)
{
	document.write("");
}


	


 

	
		
			
				
					
						
							
								
For
You And Me Tab
by Amasic tabs |
		
tabbed by Unregistered |
comments
(0) 
								
								
								
			1
					2
					3
					4
					5
		
 
1 vote 


	 For You And Me Tab

								 
								

print
								
							
							
								

send
								
							
							
								

report
								
							
			
			
							
								
	
		
		
		
		

	
	
								
								

	
	
	

	
			
			
			
				
					
						
					
					
						 
					
					
						
					
							
				
					
						+
to speed up (numpad)
						- to slow down (numpad)
						Esc to
stop
					
					Help
				
			
		
		
			
				
				
			
		
	


	
		
			
		
		
			For
You And Me tab by Amasic,
www.Ultimate-Guitar.Com
		
	
	
		
			
			View For You And Me tab on
your iPhone, iPod Touch or Android
		
		
			
			Listen to For You And
Me
		
		
			
			Add to favourites
		
				
				
			Tuning (this tab):
Half-Step Down [ D# G# C# F# A# D# ]
		
							


		
		tf_artist =
"Amasic";
		tf_song = "For You And Me";
		
		


		AMASIC - FOR YOU AND
ME
Tabbed by Jubito18

had to tab this great song as it's really easy & fun to play
I know it's not 100% correct but it's pretty accurate. Have fun
playing ;) 
Tuning: Half Step Down                                                
  

INTRO:                                               
clean                                                <
|-------------------------------------|              |
|-------6-------6-------3-------5-----|              |
|--------7-----7-7-----3-3-----5-5----|              |
|------7--7---7---7-------3---5---5---| 3x           |
|-----5------5--------1------3--------|              |
|-------------------------------------|              |
                                                     |
|--------1--------1-------------------|              |
|---------1--------1--------3---------|              |
|------3---3----3---3-----5--5--5-----|              |
|-----3-3---3--3-3---3---5-5--5-------|              |
|----1--------1---------3------3------|              |
|-------------------------------------|              |
                                                     |
CHOURS:                                              |   2x
Distorted / overdrive                                |  
|----------------------------------------|           |
|----------------------------------------|           |
|----7-7-7-7-----------------------------|           |   
|----77777777>-101010101010-1010101010---|           |
|----55555555>-8-8-8-8-8-8--1010101010---|           |
|---------------------------8-8-8-8-8----|           |
Living the same way everyday.....                    |
|---------------------------------------------|      |
|---------------------------------------------|      |
|----7-7-7-7----------------------------------|      |
|----77777777>-101010101010-121212121212--7---|      |
|----55555555>-8-8-8-8-8-8--101010101010--5---|      |
|---------------------------------------------|      <


|-------------------------------|
|-------------------------------|
|----7-7-7--7-7-7---------------| 
|----7-7-7--7-7-7--33333-5------|
|----5-5-5--5-5-5--33333-5------|
|------------------11100-3------|
No one's there we don't care..

|-------------------------------|
|-------------------------------|
|----7-7-7--7-7-7---------------| 
|----7-7-7--7-7-7--3-33--5------|
|----5-5-5--5-5-5--3-33--5------|
|------------------1-10--3------|

BRIDGE* Play D with Tremolo effect /// 

|----------------------------------|
|-----------------------(----55)---|
|----77----7------------(333-55)---| 
|---077-10-7---88-12-10-(333-55)---| 4x 
|---055-8--5--088-12-10(111-33)---|
|-------------066-10-8------------|

|---------------------------------------------|
|---------------------------------------------|
|----7-7-7-7----------------------------------| 
|----77777777>-101010101010-121212121212------|
|----55555555>-8-8-8-8-8-8--101010101010------|
|---------------------------------------------|
Living the same way everyday...


OUTRO
wanted it to be readable as possible so just repeat some sgments more
times  
|-----------------------------------------------------------------|-----|
|-----------------------------------------------------------------|-----|
|:--17-14--14-17-14--14-17-14-----19-14--14-19-14-14--15-14------:|--7--|

|:-------15--------15--------15-14-----15--------15--------15-14-:|--5--|

|-----------------------------------------------------------------|--5--|
|-----------------------------------------------------------------|-----|
You & me.....




(CHORUS  2nd guitar)

(----5555555--9-9--9-9------------------------)
(----6565656--1010-1010--11-108---------------)
(----5555555-------------10-9-7---------------) 
(---------------------------------------------)
(---------------------------------------------)
(---------------------------------------------)


END ;)
	

		
		tf_artist = "Amasic";
		tf_song = "For You And
Me";
		
		

        
							
	
	
	


								
							
						
						
	
					
				
			
		


	








var
loc = document.location.toString();
var def =
loc.indexOf("view_on");
var vote_txt = $('.cnt_rate').html();
var
tab_scroller;

$(document).ready (function
(){

	$(".search_input").autocomplete();

	first_link =
$('#print_link').attr('href');
	tab_scroller = new
TabScroller();

	$('#arr_scroll').bind('click',
function(){
		hide_scroll();
	
	$('.voting').bind('mouseleave',
function (){
	    $('.cnt_rate').html(vote_txt);
		stars_fill
(5);
	
	$('.fill').each(function(index) {
		$(this).bind('mouseover',
function(){
			stars_fill(index+1);
			$('.cnt_rate').html(votes_arr[index+1]);
		
	
	$('#pos_relative').hover
(function (){},hide_versions_area);
	$('#mv').hover
(show_versions_area);
	$('#coms_link').bind('click', function(){
		viewComments(995738,false,'all');
		location.href='#comments';
		return
false;
	
    $(".searchsel").click(function() {
       
$('.selwin').toggle();
        show_menu = 0;
   


	refferers(def,995738);

		if
(window.location.toString().indexOf("www.") != -1)// &&
document.referrer
	{
		$.ajax({
		type: 'GET',
		url:
'http://www.ultimate-guitar.com/src/ajax/ajax.log_bad_urls.php?callback=?',
		data:
{url: window.location.toString(), referrer:
document.referrer},
		dataType: 'jsonp'
	}
	





	
	  
		  
			  © 2010 Ultimate-Guitar.com or its affiliates. All rights
reserved    
			  About |
			  Help |
			  Site Map |
			  Link To Us |
			  Tell A Friend |
			  TOS |
			  Privacy Policy |
			  Advertise |
			  Contact
		  
	  
	





var _gaq = _gaq || [];
_gaq.push(['_setAccount', 'UA-9160560-1']);
_gaq.push(['_trackPageview']);

(function() {
var ga = document.createElement('script'); ga.type =
'text/javascript'; ga.async = true;
ga.src = ('https:' == document.location.protocol ? 'https://ssl' :
'http://www') +
'.google-analytics.com/ga.js';
var s = document.getElementsByTagName('script')[0];
s.parentNode.insertBefore(ga, s);
})();



    document.write(unescape("%3Cscript src='" +
(document.location.protocol == "https:" ?
"https://sb" : "http://b") + ".scorecardresearch.com/beacon.js'
%3E%3C/script%3E"));


  
    c1:2,
    c2:6745264,
    c3:"",
    c4:document.location,
    c5:"",
    c6:"",
    c15:""
  


  





_qoptions={
qacct:"p-84PgIiyhfAiVo"
};











The Best Equipment Deals | Best Music Deals
Midi Mime Types SiteMap Contact Subscribe © 2014 JimmyLandStudios